0
SECTION
2
HEADER
9
$ACADVER
1
AC1006
9
$INSBASE
10
0.0
20
0.0
30
0.0
9
$EXTMIN
10
0
20
0
9
$EXTMAX
10
8.000
20
8.000
9
$LUNITS
70
2
9
$VIEWCTR
10
4.000
20
4.000
9
$VIEWSIZE
40
8.000
0
ENDSEC
0
SECTION
2
TABLES
0
TABLE
2
LAYER
70
9
0
LAYER
2
0
70
0
62
7
6
CONTINUOUS
0
LAYER
2
1
70
0
62
7
6
CONTINUOUS
0
LAYER
2
2
70
0
62
6
6
CONTINUOUS
0
LAYER
2
3
70
0
62
6
6
CONTINUOUS
0
ENDTAB
0
ENDSEC
0
SECTION
2
ENTITIES
0
POLYLINE
8
1
6
CONTINUOUS
66
1
70
1
0
VERTEX
8
1
10
6.890
20
0.087
0
VERTEX
8
1
10
6.910
20
0.062
0
VERTEX
8
1
10
6.916
20
0.018
0
VERTEX
8
1
10
6.901
20
-0.019
0
VERTEX
8
1
10
6.871
20
-0.036
0
VERTEX
8
1
10
6.835
20
-0.024
0
VERTEX
8
1
10
6.811
20
0.011
0
VERTEX
8
1
10
6.809
20
0.050
0
VERTEX
8
1
10
6.828
20
0.076
0
VERTEX
8
1
10
6.867
20
0.091
  0
SEQEND
0
POLYLINE
8
1
6
CONTINUOUS
66
1
70
1
0
VERTEX
8
1
10
5.783
20
0.207
0
VERTEX
8
1
10
5.856
20
0.198
0
VERTEX
8
1
10
5.904
20
0.189
0
VERTEX
8
1
10
6.295
20
0.129
0
VERTEX
8
1
10
6.666
20
0.053
0
VERTEX
8
1
10
6.698
20
0.049
0
VERTEX
8
1
10
6.718
20
0.039
0
VERTEX
8
1
10
6.725
20
0.012
0
VERTEX
8
1
10
6.725
20
-0.005
0
VERTEX
8
1
10
6.716
20
-0.024
0
VERTEX
8
1
10
6.689
20
-0.029
0
VERTEX
8
1
10
6.636
20
-0.027
0
VERTEX
8
1
10
6.564
20
-0.035
0
VERTEX
8
1
10
6.523
20
-0.030
0
VERTEX
8
1
10
6.217
20
0.020
0
VERTEX
8
1
10
6.088
20
0.033
0
VERTEX
8
1
10
5.979
20
0.037
0
VERTEX
8
1
10
5.926
20
0.046
0
VERTEX
8
1
10
5.861
20
0.059
0
VERTEX
8
1
10
5.772
20
0.076
0
VERTEX
8
1
10
5.751
20
0.095
0
VERTEX
8
1
10
5.737
20
0.142
0
VERTEX
8
1
10
5.743
20
0.185
0
VERTEX
8
1
10
5.766
20
0.205
  0
SEQEND
0
POLYLINE
8
1
6
CONTINUOUS
66
1
70
1
0
VERTEX
8
1
10
6.666
20
0.348
0
VERTEX
8
1
10
6.690
20
0.334
0
VERTEX
8
1
10
6.708
20
0.294
0
VERTEX
8
1
10
6.713
20
0.237
0
VERTEX
8
1
10
6.698
20
0.204
0
VERTEX
8
1
10
6.668
20
0.189
0
VERTEX
8
1
10
6.632
20
0.201
0
VERTEX
8
1
10
6.612
20
0.239
0
VERTEX
8
1
10
6.610
20
0.293
0
VERTEX
8
1
10
6.627
20
0.330
0
VERTEX
8
1
10
6.657
20
0.347
  0
SEQEND
0
POLYLINE
8
1
6
CONTINUOUS
66
1
70
1
0
VERTEX
8
1
10
4.343
20
0.383
0
VERTEX
8
1
10
4.447
20
0.364
0
VERTEX
8
1
10
4.495
20
0.356
0
VERTEX
8
1
10
4.763
20
0.319
0
VERTEX
8
1
10
4.942
20
0.322
0
VERTEX
8
1
10
5.041
20
0.309
0
VERTEX
8
1
10
5.046
20
0.305
0
VERTEX
8
1
10
5.055
20
0.272
0
VERTEX
8
1
10
5.053
20
0.240
0
VERTEX
8
1
10
5.039
20
0.228
0
VERTEX
8
1
10
5.001
20
0.232
0
VERTEX
8
1
10
4.949
20
0.241
0
VERTEX
8
1
10
4.890
20
0.248
0
VERTEX
8
1
10
4.830
20
0.250
0
VERTEX
8
1
10
4.770
20
0.250
0
VERTEX
8
1
10
4.682
20
0.254
0
VERTEX
8
1
10
4.528
20
0.280
0
VERTEX
8
1
10
4.432
20
0.300
0
VERTEX
8
1
10
4.350
20
0.310
0
VERTEX
8
1
10
4.340
20
0.313
0
VERTEX
8
1
10
4.302
20
0.342
0
VERTEX
8
1
10
4.297
20
0.364
0
VERTEX
8
1
10
4.315
20
0.379
  0
SEQEND
0
POLYLINE
8
1
6
CONTINUOUS
66
1
70
1
0
VERTEX
8
1
10
5.774
20
0.536
0
VERTEX
8
1
10
5.907
20
0.507
0
VERTEX
8
1
10
5.941
20
0.501
0
VERTEX
8
1
10
6.035
20
0.488
0
VERTEX
8
1
10
6.301
20
0.441
0
VERTEX
8
1
10
6.332
20
0.431
0
VERTEX
8
1
10
6.354
20
0.424
0
VERTEX
8
1
10
6.386
20
0.418
0
VERTEX
8
1
10
6.438
20
0.409
0
VERTEX
8
1
10
6.515
20
0.391
0
VERTEX
8
1
10
6.538
20
0.377
0
VERTEX
8
1
10
6.540
20
0.355
0
VERTEX
8
1
10
6.521
20
0.303
0
VERTEX
8
1
10
6.519
20
0.279
0
VERTEX
8
1
10
6.508
20
0.260
0
VERTEX
8
1
10
6.482
20
0.258
0
VERTEX
8
1
10
6.338
20
0.282
0
VERTEX
8
1
10
6.306
20
0.289
0
VERTEX
8
1
10
6.090
20
0.320
0
VERTEX
8
1
10
5.929
20
0.355
0
VERTEX
8
1
10
5.774
20
0.381
0
VERTEX
8
1
10
5.740
20
0.392
0
VERTEX
8
1
10
5.715
20
0.425
0
VERTEX
8
1
10
5.709
20
0.475
0
VERTEX
8
1
10
5.723
20
0.517
0
VERTEX
8
1
10
5.751
20
0.537
  0
SEQEND
0
POLYLINE
8
1
6
CONTINUOUS
66
1
70
1
0
VERTEX
8
1
10
4.434
20
0.603
0
VERTEX
8
1
10
4.595
20
0.588
0
VERTEX
8
1
10
4.668
20
0.582
0
VERTEX
8
1
10
4.970
20
0.568
0
VERTEX
8
1
10
5.045
20
0.562
0
VERTEX
8
1
10
5.087
20
0.555
0
VERTEX
8
1
10
5.098
20
0.544
0
VERTEX
8
1
10
5.102
20
0.493
0
VERTEX
8
1
10
5.101
20
0.463
0
VERTEX
8
1
10
5.105
20
0.447
0
VERTEX
8
1
10
5.101
20
0.430
0
VERTEX
8
1
10
5.079
20
0.425
0
VERTEX
8
1
10
4.952
20
0.433
0
VERTEX
8
1
10
4.922
20
0.436
0
VERTEX
8
1
10
4.582
20
0.445
0
VERTEX
8
1
10
4.451
20
0.468
0
VERTEX
8
1
10
4.430
20
0.476
0
VERTEX
8
1
10
4.409
20
0.503
0
VERTEX
8
1
10
4.407
20
0.511
0
VERTEX
8
1
10
4.401
20
0.582
0
VERTEX
8
1
10
4.408
20
0.601
  0
SEQEND
0
POLYLINE
8
1
6
CONTINUOUS
66
1
70
1
0
VERTEX
8
1
10
4.300
20
0.607
0
VERTEX
8
1
10
4.322
20
0.578
0
VERTEX
8
1
10
4.329
20
0.528
0
VERTEX
8
1
10
4.316
20
0.484
0
VERTEX
8
1
10
4.290
20
0.463
0
VERTEX
8
1
10
4.265
20
0.466
0
VERTEX
8
1
10
4.245
20
0.492
0
VERTEX
8
1
10
4.237
20
0.547
0
VERTEX
8
1
10
4.248
20
0.594
0
VERTEX
8
1
10
4.271
20
0.615
  0
SEQEND
0
POLYLINE
8
1
6
CONTINUOUS
66
1
70
1
0
VERTEX
8
1
10
6.924
20
0.607
0
VERTEX
8
1
10
6.942
20
0.570
0
VERTEX
8
1
10
6.942
20
0.515
0
VERTEX
8
1
10
6.924
20
0.474
0
VERTEX
8
1
10
6.894
20
0.457
0
VERTEX
8
1
10
6.856
20
0.472
0
VERTEX
8
1
10
6.837
20
0.514
0
VERTEX
8
1
10
6.838
20
0.565
0
VERTEX
8
1
10
6.857
20
0.601
0
VERTEX
8
1
10
6.892
20
0.618
  0
SEQEND
0
POLYLINE
8
1
6
CONTINUOUS
66
1
70
1
0
VERTEX
8
1
10
7.286
20
0.652
0
VERTEX
8
1
10
7.297
20
0.630
0
VERTEX
8
1
10
7.295
20
0.582
0
VERTEX
8
1
10
7.296
20
0.560
0
VERTEX
8
1
10
7.301
20
0.514
0
VERTEX
8
1
10
7.294
20
0.491
0
VERTEX
8
1
10
7.267
20
0.482
0
VERTEX
8
1
10
7.091
20
0.443
0
VERTEX
8
1
10
7.033
20
0.429
0
VERTEX
8
1
10
7.017
20
0.435
0
VERTEX
8
1
10
7.020
20
0.455
0
VERTEX
8
1
10
7.040
20
0.543
0
VERTEX
8
1
10
7.035
20
0.590
0
VERTEX
8
1
10
7.040
20
0.613
0
VERTEX
8
1
10
7.063
20
0.624
0
VERTEX
8
1
10
7.107
20
0.628
0
VERTEX
8
1
10
7.275
20
0.654
  0
SEQEND
0
POLYLINE
8
1
6
CONTINUOUS
66
1
70
1
0
VERTEX
8
1
10
5.827
20
0.779
0
VERTEX
8
1
10
6.061
20
0.736
0
VERTEX
8
1
10
6.181
20
0.726
0
VERTEX
8
1
10
6.277
20
0.708
0
VERTEX
8
1
10
6.409
20
0.682
0
VERTEX
8
1
10
6.521
20
0.658
0
VERTEX
8
1
10
6.619
20
0.633
0
VERTEX
8
1
10
6.716
20
0.628
0
VERTEX
8
1
10
6.741
20
0.628
0
VERTEX
8
1
10
6.763
20
0.619
0
VERTEX
8
1
10
6.766
20
0.597
0
VERTEX
8
1
10
6.753
20
0.569
0
VERTEX
8
1
10
6.751
20
0.507
0
VERTEX
8
1
10
6.740
20
0.491
0
VERTEX
8
1
10
6.712
20
0.490
0
VERTEX
8
1
10
6.371
20
0.531
0
VERTEX
8
1
10
6.182
20
0.567
0
VERTEX
8
1
10
6.124
20
0.580
0
VERTEX
8
1
10
5.884
20
0.619
0
VERTEX
8
1
10
5.812
20
0.634
0
VERTEX
8
1
10
5.774
20
0.645
0
VERTEX
8
1
10
5.749
20
0.662
0
VERTEX
8
1
10
5.720
20
0.703
0
VERTEX
8
1
10
5.716
20
0.741
0
VERTEX
8
1
10
5.732
20
0.768
0
VERTEX
8
1
10
5.768
20
0.782
  0
SEQEND
0
POLYLINE
8
1
6
CONTINUOUS
66
1
70
1
0
VERTEX
8
1
10
4.377
20
0.837
0
VERTEX
8
1
10
4.422
20
0.831
0
VERTEX
8
1
10
4.598
20
0.825
0
VERTEX
8
1
10
4.730
20
0.824
0
VERTEX
8
1
10
4.990
20
0.814
0
VERTEX
8
1
10
5.054
20
0.809
0
VERTEX
8
1
10
5.076
20
0.799
0
VERTEX
8
1
10
5.081
20
0.775
0
VERTEX
8
1
10
5.082
20
0.729
0
VERTEX
8
1
10
5.109
20
0.674
0
VERTEX
8
1
10
5.088
20
0.656
0
VERTEX
8
1
10
4.998
20
0.662
0
VERTEX
8
1
10
4.979
20
0.665
0
VERTEX
8
1
10
4.908
20
0.678
0
VERTEX
8
1
10
4.745
20
0.688
0
VERTEX
8
1
10
4.659
20
0.697
0
VERTEX
8
1
10
4.488
20
0.716
0
VERTEX
8
1
10
4.414
20
0.729
0
VERTEX
8
1
10
4.352
20
0.752
0
VERTEX
8
1
10
4.316
20
0.777
0
VERTEX
8
1
10
4.301
20
0.803
0
VERTEX
8
1
10
4.310
20
0.823
0
VERTEX
8
1
10
4.342
20
0.838
  0
SEQEND
0
POLYLINE
8
1
6
CONTINUOUS
66
1
70
1
0
VERTEX
8
1
10
6.663
20
0.857
0
VERTEX
8
1
10
6.683
20
0.825
0
VERTEX
8
1
10
6.686
20
0.773
0
VERTEX
8
1
10
6.669
20
0.730
0
VERTEX
8
1
10
6.638
20
0.709
0
VERTEX
8
1
10
6.608
20
0.706
0
VERTEX
8
1
10
6.578
20
0.721
0
VERTEX
8
1
10
6.559
20
0.755
0
VERTEX
8
1
10
6.560
20
0.804
0
VERTEX
8
1
10
6.582
20
0.845
0
VERTEX
8
1
10
6.618
20
0.866
  0
SEQEND
0
POLYLINE
8
1
6
CONTINUOUS
66
1
70
1
0
VERTEX
8
1
10
9.957
20
0.900
0
VERTEX
8
1
10
9.961
20
0.891
0
VERTEX
8
1
10
9.947
20
0.877
0
VERTEX
8
1
10
9.852
20
0.853
0
VERTEX
8
1
10
9.831
20
0.849
0
VERTEX
8
1
10
9.657
20
0.803
0
VERTEX
8
1
10
9.446
20
0.768
0
VERTEX
8
1
10
9.307
20
0.749
0
VERTEX
8
1
10
9.217
20
0.735
0
VERTEX
8
1
10
9.154
20
0.720
0
VERTEX
8
1
10
9.092
20
0.702
0
VERTEX
8
1
10
8.844
20
0.651
0
VERTEX
8
1
10
8.760
20
0.636
0
VERTEX
8
1
10
8.430
20
0.570
0
VERTEX
8
1
10
8.030
20
0.479
0
VERTEX
8
1
10
7.772
20
0.410
0
VERTEX
8
1
10
7.553
20
0.347
0
VERTEX
8
1
10
7.460
20
0.321
0
VERTEX
8
1
10
7.419
20
0.312
0
VERTEX
8
1
10
7.298
20
0.297
0
VERTEX
8
1
10
7.176
20
0.285
0
VERTEX
8
1
10
7.119
20
0.276
0
VERTEX
8
1
10
6.978
20
0.258
0
VERTEX
8
1
10
6.944
20
0.256
0
VERTEX
8
1
10
6.860
20
0.244
0
VERTEX
8
1
10
6.825
20
0.240
0
VERTEX
8
1
10
6.813
20
0.243
0
VERTEX
8
1
10
6.802
20
0.265
0
VERTEX
8
1
10
6.811
20
0.290
0
VERTEX
8
1
10
6.837
20
0.297
0
VERTEX
8
1
10
6.852
20
0.297
0
VERTEX
8
1
10
6.965
20
0.318
0
VERTEX
8
1
10
7.130
20
0.354
0
VERTEX
8
1
10
7.360
20
0.402
0
VERTEX
8
1
10
7.521
20
0.428
0
VERTEX
8
1
10
7.664
20
0.445
0
VERTEX
8
1
10
7.829
20
0.470
0
VERTEX
8
1
10
8.372
20
0.610
0
VERTEX
8
1
10
8.397
20
0.617
0
VERTEX
8
1
10
8.427
20
0.627
0
VERTEX
8
1
10
8.460
20
0.636
0
VERTEX
8
1
10
8.498
20
0.642
0
VERTEX
8
1
10
8.553
20
0.650
0
VERTEX
8
1
10
8.803
20
0.699
0
VERTEX
8
1
10
9.135
20
0.762
0
VERTEX
8
1
10
9.442
20
0.822
0
VERTEX
8
1
10
9.927
20
0.907
  0
SEQEND
0
POLYLINE
8
1
6
CONTINUOUS
66
1
70
1
0
VERTEX
8
1
10
7.232
20
0.917
0
VERTEX
8
1
10
7.268
20
0.916
0
VERTEX
8
1
10
7.285
20
0.899
0
VERTEX
8
1
10
7.290
20
0.862
0
VERTEX
8
1
10
7.286
20
0.827
0
VERTEX
8
1
10
7.267
20
0.809
0
VERTEX
8
1
10
7.226
20
0.802
0
VERTEX
8
1
10
6.999
20
0.781
0
VERTEX
8
1
10
6.860
20
0.785
0
VERTEX
8
1
10
6.823
20
0.790
0
VERTEX
8
1
10
6.789
20
0.805
0
VERTEX
8
1
10
6.769
20
0.837
0
VERTEX
8
1
10
6.762
20
0.859
0
VERTEX
8
1
10
6.766
20
0.874
0
VERTEX
8
1
10
6.791
20
0.878
0
VERTEX
8
1
10
6.897
20
0.884
0
VERTEX
8
1
10
6.957
20
0.892
0
VERTEX
8
1
10
7.102
20
0.903
0
VERTEX
8
1
10
7.216
20
0.915
  0
SEQEND
0
POLYLINE
8
1
6
CONTINUOUS
66
1
70
1
0
VERTEX
8
1
10
8.940
20
1.000
0
VERTEX
8
1
10
8.952
20
0.973
0
VERTEX
8
1
10
8.954
20
0.965
0
VERTEX
8
1
10
8.971
20
0.891
0
VERTEX
8
1
10
8.962
20
0.869
0
VERTEX
8
1
10
8.939
20
0.857
0
VERTEX
8
1
10
8.824
20
0.836
0
VERTEX
8
1
10
8.775
20
0.822
0
VERTEX
8
1
10
8.736
20
0.820
0
VERTEX
8
1
10
8.538
20
0.813
0
VERTEX
8
1
10
8.460
20
0.828
0
VERTEX
8
1
10
8.432
20
0.858
0
VERTEX
8
1
10
8.427
20
0.892
0
VERTEX
8
1
10
8.443
20
0.911
0
VERTEX
8
1
10
8.461
20
0.917
0
VERTEX
8
1
10
8.509
20
0.926
0
VERTEX
8
1
10
8.673
20
0.951
0
VERTEX
8
1
10
8.743
20
0.961
0
VERTEX
8
1
10
8.776
20
0.966
0
VERTEX
8
1
10
8.862
20
0.990
0
VERTEX
8
1
10
8.933
20
1.002
  0
SEQEND
0
POLYLINE
8
1
6
CONTINUOUS
66
1
70
1
0
VERTEX
8
1
10
5.803
20
1.009
0
VERTEX
8
1
10
5.920
20
0.998
0
VERTEX
8
1
10
6.045
20
0.987
0
VERTEX
8
1
10
6.402
20
0.923
0
VERTEX
8
1
10
6.498
20
0.909
0
VERTEX
8
1
10
6.521
20
0.897
0
VERTEX
8
1
10
6.520
20
0.880
0
VERTEX
8
1
10
6.505
20
0.853
0
VERTEX
8
1
10
6.489
20
0.822
0
VERTEX
8
1
10
6.466
20
0.812
0
VERTEX
8
1
10
6.431
20
0.814
0
VERTEX
8
1
10
6.378
20
0.823
0
VERTEX
8
1
10
6.113
20
0.846
0
VERTEX
8
1
10
6.099
20
0.848
0
VERTEX
8
1
10
6.060
20
0.854
0
VERTEX
8
1
10
5.866
20
0.885
0
VERTEX
8
1
10
5.812
20
0.895
0
VERTEX
8
1
10
5.789
20
0.901
0
VERTEX
8
1
10
5.770
20
0.915
0
VERTEX
8
1
10
5.756
20
0.948
0
VERTEX
8
1
10
5.764
20
0.984
0
VERTEX
8
1
10
5.791
20
1.006
  0
SEQEND
0
POLYLINE
8
1
6
CONTINUOUS
66
1
70
1
0
VERTEX
8
1
10
4.606
20
1.071
0
VERTEX
8
1
10
4.828
20
1.055
0
VERTEX
8
1
10
4.941
20
1.041
0
VERTEX
8
1
10
5.006
20
1.033
0
VERTEX
8
1
10
5.041
20
1.031
0
VERTEX
8
1
10
5.078
20
1.027
0
VERTEX
8
1
10
5.091
20
1.010
0
VERTEX
8
1
10
5.096
20
0.970
0
VERTEX
8
1
10
5.116
20
0.913
0
VERTEX
8
1
10
5.112
20
0.899
0
VERTEX
8
1
10
5.089
20
0.899
0
VERTEX
8
1
10
5.046
20
0.905
0
VERTEX
8
1
10
4.936
20
0.917
0
VERTEX
8
1
10
4.866
20
0.923
0
VERTEX
8
1
10
4.836
20
0.925
0
VERTEX
8
1
10
4.641
20
0.936
0
VERTEX
8
1
10
4.533
20
0.946
0
VERTEX
8
1
10
4.462
20
0.948
0
VERTEX
8
1
10
4.426
20
0.949
0
VERTEX
8
1
10
4.399
20
0.957
0
VERTEX
8
1
10
4.387
20
0.980
0
VERTEX
8
1
10
4.383
20
1.026
0
VERTEX
8
1
10
4.385
20
1.060
0
VERTEX
8
1
10
4.401
20
1.073
0
VERTEX
8
1
10
4.463
20
1.076
  0
SEQEND
0
POLYLINE
8
1
6
CONTINUOUS
66
1
70
1
0
VERTEX
8
1
10
4.307
20
1.090
0
VERTEX
8
1
10
4.327
20
1.056
0
VERTEX
8
1
10
4.330
20
1.005
0
VERTEX
8
1
10
4.313
20
0.968
0
VERTEX
8
1
10
4.283
20
0.952
0
VERTEX
8
1
10
4.235
20
0.968
0
VERTEX
8
1
10
4.216
20
1.006
0
VERTEX
8
1
10
4.217
20
1.052
0
VERTEX
8
1
10
4.237
20
1.085
0
VERTEX
8
1
10
4.273
20
1.100
  0
SEQEND
0
POLYLINE
8
1
6
CONTINUOUS
66
1
70
1
0
VERTEX
8
1
10
6.936
20
1.118
0
VERTEX
8
1
10
6.959
20
1.081
0
VERTEX
8
1
10
6.965
20
1.028
0
VERTEX
8
1
10
6.952
20
0.990
0
VERTEX
8
1
10
6.923
20
0.972
0
VERTEX
8
1
10
6.889
20
0.980
0
VERTEX
8
1
10
6.867
20
1.012
0
VERTEX
8
1
10
6.860
20
1.067
0
VERTEX
8
1
10
6.872
20
1.109
0
VERTEX
8
1
10
6.896
20
1.128
  0
SEQEND
0
POLYLINE
8
1
6
CONTINUOUS
66
1
70
1
0
VERTEX
8
1
10
7.752
20
1.147
0
VERTEX
8
1
10
7.758
20
1.113
0
VERTEX
8
1
10
7.759
20
1.068
0
VERTEX
8
1
10
7.771
20
0.863
0
VERTEX
8
1
10
7.778
20
0.768
0
VERTEX
8
1
10
7.785
20
0.732
0
VERTEX
8
1
10
7.785
20
0.697
0
VERTEX
8
1
10
7.767
20
0.684
0
VERTEX
8
1
10
7.673
20
0.665
0
VERTEX
8
1
10
7.638
20
0.663
0
VERTEX
8
1
10
7.619
20
0.678
0
VERTEX
8
1
10
7.610
20
0.712
0
VERTEX
8
1
10
7.606
20
0.766
0
VERTEX
8
1
10
7.603
20
0.839
0
VERTEX
8
1
10
7.600
20
0.885
0
VERTEX
8
1
10
7.591
20
1.032
0
VERTEX
8
1
10
7.593
20
1.090
0
VERTEX
8
1
10
7.600
20
1.114
0
VERTEX
8
1
10
7.613
20
1.122
0
VERTEX
8
1
10
7.713
20
1.146
0
VERTEX
8
1
10
7.740
20
1.150
  0
SEQEND
0
POLYLINE
8
1
6
CONTINUOUS
66
1
70
1
0
VERTEX
8
1
10
7.977
20
1.188
0
VERTEX
8
1
10
7.986
20
1.156
0
VERTEX
8
1
10
7.989
20
1.042
0
VERTEX
8
1
10
7.991
20
0.985
0
VERTEX
8
1
10
7.996
20
0.894
0
VERTEX
8
1
10
8.004
20
0.768
0
VERTEX
8
1
10
8.006
20
0.748
0
VERTEX
8
1
10
7.998
20
0.728
0
VERTEX
8
1
10
7.966
20
0.717
0
VERTEX
8
1
10
7.891
20
0.700
0
VERTEX
8
1
10
7.856
20
0.699
0
VERTEX
8
1
10
7.838
20
0.713
0
VERTEX
8
1
10
7.829
20
0.746
0
VERTEX
8
1
10
7.826
20
0.802
0
VERTEX
8
1
10
7.822
20
0.853
0
VERTEX
8
1
10
7.809
20
1.077
0
VERTEX
8
1
10
7.810
20
1.131
0
VERTEX
8
1
10
7.814
20
1.156
0
VERTEX
8
1
10
7.839
20
1.172
0
VERTEX
8
1
10
7.934
20
1.195
0
VERTEX
8
1
10
7.966
20
1.196
  0
SEQEND
0
POLYLINE
8
1
6
CONTINUOUS
66
1
70
1
0
VERTEX
8
1
10
7.245
20
1.206
0
VERTEX
8
1
10
7.271
20
1.199
0
VERTEX
8
1
10
7.283
20
1.174
0
VERTEX
8
1
10
7.281
20
1.105
0
VERTEX
8
1
10
7.281
20
1.077
0
VERTEX
8
1
10
7.275
20
1.044
0
VERTEX
8
1
10
7.254
20
1.030
0
VERTEX
8
1
10
7.214
20
1.026
0
VERTEX
8
1
10
7.093
20
1.008
0
VERTEX
8
1
10
7.059
20
1.003
0
VERTEX
8
1
10
7.037
20
1.007
0
VERTEX
8
1
10
7.031
20
1.029
0
VERTEX
8
1
10
7.026
20
1.077
0
VERTEX
8
1
10
7.001
20
1.135
0
VERTEX
8
1
10
7.001
20
1.156
0
VERTEX
8
1
10
7.021
20
1.167
0
VERTEX
8
1
10
7.061
20
1.172
0
VERTEX
8
1
10
7.218
20
1.204
  0
SEQEND
0
POLYLINE
8
1
6
CONTINUOUS
66
1
70
1
0
VERTEX
8
1
10
10.008
20
1.207
0
VERTEX
8
1
10
10.034
20
1.187
0
VERTEX
8
1
10
10.032
20
1.142
0
VERTEX
8
1
10
9.997
20
1.118
0
VERTEX
8
1
10
9.921
20
1.099
0
VERTEX
8
1
10
9.848
20
1.098
0
VERTEX
8
1
10
9.810
20
1.108
0
VERTEX
8
1
10
9.804
20
1.115
0
VERTEX
8
1
10
9.795
20
1.151
0
VERTEX
8
1
10
9.807
20
1.175
0
VERTEX
8
1
10
9.836
20
1.185
0
VERTEX
8
1
10
9.992
20
1.208
  0
SEQEND
0
POLYLINE
8
1
6
CONTINUOUS
66
1
70
1
0
VERTEX
8
1
10
8.930
20
1.214
0
VERTEX
8
1
10
8.937
20
1.175
0
VERTEX
8
1
10
8.938
20
1.131
0
VERTEX
8
1
10
8.929
20
1.100
0
VERTEX
8
1
10
8.868
20
1.083
0
VERTEX
8
1
10
8.752
20
1.060
0
VERTEX
8
1
10
8.492
20
1.028
0
VERTEX
8
1
10
8.448
20
1.032
0
VERTEX
8
1
10
8.424
20
1.050
0
VERTEX
8
1
10
8.419
20
1.083
0
VERTEX
8
1
10
8.440
20
1.131
0
VERTEX
8
1
10
8.489
20
1.168
0
VERTEX
8
1
10
8.567
20
1.182
0
VERTEX
8
1
10
8.731
20
1.197
0
VERTEX
8
1
10
8.884
20
1.221
0
VERTEX
8
1
10
8.914
20
1.224
  0
SEQEND
0
POLYLINE
8
1
6
CONTINUOUS
66
1
70
1
0
VERTEX
8
1
10
5.802
20
1.236
0
VERTEX
8
1
10
5.924
20
1.225
0
VERTEX
8
1
10
5.959
20
1.220
0
VERTEX
8
1
10
6.064
20
1.199
0
VERTEX
8
1
10
6.411
20
1.145
0
VERTEX
8
1
10
6.682
20
1.109
0
VERTEX
8
1
10
6.738
20
1.103
0
VERTEX
8
1
10
6.776
20
1.087
0
VERTEX
8
1
10
6.790
20
1.059
0
VERTEX
8
1
10
6.793
20
1.005
0
VERTEX
8
1
10
6.779
20
0.988
0
VERTEX
8
1
10
6.747
20
0.987
0
VERTEX
8
1
10
6.623
20
1.010
0
VERTEX
8
1
10
6.542
20
1.022
0
VERTEX
8
1
10
6.249
20
1.058
0
VERTEX
8
1
10
5.994
20
1.083
0
VERTEX
8
1
10
5.882
20
1.093
0
VERTEX
8
1
10
5.789
20
1.111
0
VERTEX
8
1
10
5.758
20
1.137
0
VERTEX
8
1
10
5.744
20
1.180
0
VERTEX
8
1
10
5.753
20
1.215
0
VERTEX
8
1
10
5.780
20
1.234
  0
SEQEND
0
POLYLINE
8
1
6
CONTINUOUS
66
1
70
1
0
VERTEX
8
1
10
4.426
20
1.328
0
VERTEX
8
1
10
4.702
20
1.309
0
VERTEX
8
1
10
5.057
20
1.279
0
VERTEX
8
1
10
5.082
20
1.273
0
VERTEX
8
1
10
5.096
20
1.251
0
VERTEX
8
1
10
5.090
20
1.209
0
VERTEX
8
1
10
5.072
20
1.184
0
VERTEX
8
1
10
5.025
20
1.179
0
VERTEX
8
1
10
4.922
20
1.184
0
VERTEX
8
1
10
4.846
20
1.191
0
VERTEX
8
1
10
4.814
20
1.195
0
VERTEX
8
1
10
4.474
20
1.237
0
VERTEX
8
1
10
4.338
20
1.263
0
VERTEX
8
1
10
4.300
20
1.280
0
VERTEX
8
1
10
4.289
20
1.301
0
VERTEX
8
1
10
4.301
20
1.319
0
VERTEX
8
1
10
4.336
20
1.331
  0
SEQEND
0
POLYLINE
8
1
6
CONTINUOUS
66
1
70
1
0
VERTEX
8
1
10
6.682
20
1.350
0
VERTEX
8
1
10
6.700
20
1.307
0
VERTEX
8
1
10
6.698
20
1.259
0
VERTEX
8
1
10
6.677
20
1.227
0
VERTEX
8
1
10
6.641
20
1.213
0
VERTEX
8
1
10
6.613
20
1.217
0
VERTEX
8
1
10
6.584
20
1.239
0
VERTEX
8
1
10
6.568
20
1.281
0
VERTEX
8
1
10
6.571
20
1.329
0
VERTEX
8
1
10
6.593
20
1.363
0
VERTEX
8
1
10
6.628
20
1.377
  0
SEQEND
0
POLYLINE
8
1
6
CONTINUOUS
66
1
70
1
0
VERTEX
8
1
10
9.988
20
1.415
0
VERTEX
8
1
10
9.998
20
1.384
0
VERTEX
8
1
10
9.989
20
1.345
0
VERTEX
8
1
10
9.961
20
1.329
0
VERTEX
8
1
10
9.887
20
1.328
0
VERTEX
8
1
10
9.842
20
1.331
0
VERTEX
8
1
10
9.809
20
1.345
0
VERTEX
8
1
10
9.800
20
1.370
0
VERTEX
8
1
10
9.801
20
1.385
0
VERTEX
8
1
10
9.816
20
1.405
0
VERTEX
8
1
10
9.862
20
1.410
0
VERTEX
8
1
10
9.971
20
1.419
  0
SEQEND
0
POLYLINE
8
1
6
CONTINUOUS
66
1
70
1
0
VERTEX
8
1
10
9.291
20
1.428
0
VERTEX
8
1
10
9.297
20
1.370
0
VERTEX
8
1
10
9.298
20
1.349
0
VERTEX
8
1
10
9.312
20
1.113
0
VERTEX
8
1
10
9.315
20
1.092
0
VERTEX
8
1
10
9.314
20
1.053
0
VERTEX
8
1
10
9.295
20
1.040
0
VERTEX
8
1
10
9.245
20
1.031
0
VERTEX
8
1
10
9.211
20
1.030
0
VERTEX
8
1
10
9.193
20
1.041
0
VERTEX
8
1
10
9.187
20
1.069
0
VERTEX
8
1
10
9.188
20
1.124
0
VERTEX
8
1
10
9.182
20
1.329
0
VERTEX
8
1
10
9.179
20
1.392
0
VERTEX
8
1
10
9.195
20
1.414
0
VERTEX
8
1
10
9.227
20
1.426
0
VERTEX
8
1
10
9.280
20
1.437
  0
SEQEND
0
POLYLINE
8
1
6
CONTINUOUS
66
1
70
1
0
VERTEX
8
1
10
7.274
20
1.455
0
VERTEX
8
1
10
7.280
20
1.437
0
VERTEX
8
1
10
7.279
20
1.365
0
VERTEX
8
1
10
7.274
20
1.338
0
VERTEX
8
1
10
7.253
20
1.317
0
VERTEX
8
1
10
7.209
20
1.309
0
VERTEX
8
1
10
7.093
20
1.312
0
VERTEX
8
1
10
6.919
20
1.292
0
VERTEX
8
1
10
6.881
20
1.293
0
VERTEX
8
1
10
6.829
20
1.303
0
VERTEX
8
1
10
6.794
20
1.321
0
VERTEX
8
1
10
6.775
20
1.356
0
VERTEX
8
1
10
6.777
20
1.372
0
VERTEX
8
1
10
6.803
20
1.383
0
VERTEX
8
1
10
6.905
20
1.382
0
VERTEX
8
1
10
6.929
20
1.380
0
VERTEX
8
1
10
7.011
20
1.416
0
VERTEX
8
1
10
7.246
20
1.458
  0
SEQEND
0
POLYLINE
8
1
6
CONTINUOUS
66
1
70
1
0
VERTEX
8
1
10
8.916
20
1.456
0
VERTEX
8
1
10
8.920
20
1.402
0
VERTEX
8
1
10
8.921
20
1.385
0
VERTEX
8
1
10
8.914
20
1.359
0
VERTEX
8
1
10
8.888
20
1.344
0
VERTEX
8
1
10
8.849
20
1.332
0
VERTEX
8
1
10
8.773
20
1.324
0
VERTEX
8
1
10
8.696
20
1.323
0
VERTEX
8
1
10
8.644
20
1.316
0
VERTEX
8
1
10
8.534
20
1.305
0
VERTEX
8
1
10
8.461
20
1.309
0
VERTEX
8
1
10
8.425
20
1.322
0
VERTEX
8
1
10
8.412
20
1.343
0
VERTEX
8
1
10
8.422
20
1.375
0
VERTEX
8
1
10
8.425
20
1.380
0
VERTEX
8
1
10
8.460
20
1.388
0
VERTEX
8
1
10
8.887
20
1.466
  0
SEQEND
0
POLYLINE
8
1
6
CONTINUOUS
66
1
70
1
0
VERTEX
8
1
10
9.463
20
1.455
0
VERTEX
8
1
10
9.473
20
1.403
0
VERTEX
8
1
10
9.475
20
1.363
0
VERTEX
8
1
10
9.486
20
1.297
0
VERTEX
8
1
10
9.492
20
1.158
0
VERTEX
8
1
10
9.491
20
1.122
0
VERTEX
8
1
10
9.480
20
1.087
0
VERTEX
8
1
10
9.451
20
1.070
0
VERTEX
8
1
10
9.410
20
1.064
0
VERTEX
8
1
10
9.383
20
1.073
0
VERTEX
8
1
10
9.368
20
1.101
0
VERTEX
8
1
10
9.364
20
1.170
0
VERTEX
8
1
10
9.361
20
1.230
0
VERTEX
8
1
10
9.359
20
1.341
0
VERTEX
8
1
10
9.360
20
1.374
0
VERTEX
8
1
10
9.355
20
1.423
0
VERTEX
8
1
10
9.362
20
1.448
0
VERTEX
8
1
10
9.387
20
1.462
0
VERTEX
8
1
10
9.431
20
1.472
  0
SEQEND
0
POLYLINE
8
1
6
CONTINUOUS
66
1
70
1
0
VERTEX
8
1
10
5.834
20
1.492
0
VERTEX
8
1
10
6.092
20
1.454
0
VERTEX
8
1
10
6.307
20
1.421
0
VERTEX
8
1
10
6.465
20
1.386
0
VERTEX
8
1
10
6.495
20
1.377
0
VERTEX
8
1
10
6.510
20
1.366
0
VERTEX
8
1
10
6.508
20
1.341
0
VERTEX
8
1
10
6.504
20
1.299
0
VERTEX
8
1
10
6.500
20
1.274
0
VERTEX
8
1
10
6.485
20
1.261
0
VERTEX
8
1
10
6.442
20
1.268
0
VERTEX
8
1
10
6.320
20
1.281
0
VERTEX
8
1
10
5.943
20
1.326
0
VERTEX
8
1
10
5.877
20
1.330
0
VERTEX
8
1
10
5.809
20
1.342
0
VERTEX
8
1
10
5.769
20
1.386
0
VERTEX
8
1
10
5.761
20
1.433
0
VERTEX
8
1
10
5.774
20
1.471
0
VERTEX
8
1
10
5.805
20
1.492
  0
SEQEND
0
POLYLINE
8
1
6
CONTINUOUS
66
1
70
1
0
VERTEX
8
1
10
4.445
20
1.582
0
VERTEX
8
1
10
4.575
20
1.571
0
VERTEX
8
1
10
4.601
20
1.568
0
VERTEX
8
1
10
4.819
20
1.565
0
VERTEX
8
1
10
4.959
20
1.554
0
VERTEX
8
1
10
5.068
20
1.555
0
VERTEX
8
1
10
5.088
20
1.547
0
VERTEX
8
1
10
5.090
20
1.515
0
VERTEX
8
1
10
5.092
20
1.443
0
VERTEX
8
1
10
5.090
20
1.409
0
VERTEX
8
1
10
5.068
20
1.404
0
VERTEX
8
1
10
5.020
20
1.411
0
VERTEX
8
1
10
4.941
20
1.418
0
VERTEX
8
1
10
4.702
20
1.441
0
VERTEX
8
1
10
4.525
20
1.443
0
VERTEX
8
1
10
4.432
20
1.462
0
VERTEX
8
1
10
4.414
20
1.497
0
VERTEX
8
1
10
4.420
20
1.561
0
VERTEX
8
1
10
4.428
20
1.580
  0
SEQEND
0
POLYLINE
8
1
6
CONTINUOUS
66
1
70
1
0
VERTEX
8
1
10
4.334
20
1.581
0
VERTEX
8
1
10
4.349
20
1.556
0
VERTEX
8
1
10
4.348
20
1.512
0
VERTEX
8
1
10
4.324
20
1.464
0
VERTEX
8
1
10
4.294
20
1.444
0
VERTEX
8
1
10
4.263
20
1.451
0
VERTEX
8
1
10
4.245
20
1.479
0
VERTEX
8
1
10
4.244
20
1.527
0
VERTEX
8
1
10
4.263
20
1.567
0
VERTEX
8
1
10
4.294
20
1.586
  0
SEQEND
0
POLYLINE
8
1
6
CONTINUOUS
66
1
70
1
0
VERTEX
8
1
10
6.947
20
1.646
0
VERTEX
8
1
10
6.966
20
1.618
0
VERTEX
8
1
10
6.972
20
1.566
0
VERTEX
8
1
10
6.958
20
1.524
0
VERTEX
8
1
10
6.932
20
1.505
0
VERTEX
8
1
10
6.906
20
1.508
0
VERTEX
8
1
10
6.888
20
1.533
0
VERTEX
8
1
10
6.884
20
1.583
0
VERTEX
8
1
10
6.901
20
1.631
0
VERTEX
8
1
10
6.925
20
1.650
  0
SEQEND
0
POLYLINE
8
1
6
CONTINUOUS
66
1
70
1
0
VERTEX
8
1
10
10.007
20
1.643
0
VERTEX
8
1
10
10.035
20
1.604
0
VERTEX
8
1
10
10.040
20
1.565
0
VERTEX
8
1
10
10.023
20
1.545
0
VERTEX
8
1
10
9.981
20
1.538
0
VERTEX
8
1
10
9.886
20
1.530
0
VERTEX
8
1
10
9.827
20
1.538
0
VERTEX
8
1
10
9.815
20
1.554
0
VERTEX
8
1
10
9.810
20
1.605
0
VERTEX
8
1
10
9.820
20
1.629
0
VERTEX
8
1
10
9.838
20
1.637
0
VERTEX
8
1
10
9.940
20
1.652
0
VERTEX
8
1
10
9.973
20
1.655
  0
SEQEND
0
POLYLINE
8
1
6
CONTINUOUS
66
1
70
1
0
VERTEX
8
1
10
8.895
20
1.691
0
VERTEX
8
1
10
8.908
20
1.670
0
VERTEX
8
1
10
8.910
20
1.595
0
VERTEX
8
1
10
8.902
20
1.578
0
VERTEX
8
1
10
8.824
20
1.568
0
VERTEX
8
1
10
8.623
20
1.540
0
VERTEX
8
1
10
8.518
20
1.527
0
VERTEX
8
1
10
8.458
20
1.534
0
VERTEX
8
1
10
8.428
20
1.553
0
VERTEX
8
1
10
8.418
20
1.587
0
VERTEX
8
1
10
8.423
20
1.611
0
VERTEX
8
1
10
8.444
20
1.627
0
VERTEX
8
1
10
8.527
20
1.634
0
VERTEX
8
1
10
8.872
20
1.694
  0
SEQEND
0
POLYLINE
8
1
6
CONTINUOUS
66
1
70
1
0
VERTEX
8
1
10
7.273
20
1.705
0
VERTEX
8
1
10
7.282
20
1.679
0
VERTEX
8
1
10
7.288
20
1.630
0
VERTEX
8
1
10
7.286
20
1.598
0
VERTEX
8
1
10
7.268
20
1.582
0
VERTEX
8
1
10
7.230
20
1.575
0
VERTEX
8
1
10
7.170
20
1.568
0
VERTEX
8
1
10
7.136
20
1.563
0
VERTEX
8
1
10
7.088
20
1.550
0
VERTEX
8
1
10
7.059
20
1.540
0
VERTEX
8
1
10
7.047
20
1.544
0
VERTEX
8
1
10
7.045
20
1.569
0
VERTEX
8
1
10
7.034
20
1.633
0
VERTEX
8
1
10
7.042
20
1.661
0
VERTEX
8
1
10
7.069
20
1.675
0
VERTEX
8
1
10
7.216
20
1.706
0
VERTEX
8
1
10
7.266
20
1.707
  0
SEQEND
0
POLYLINE
8
1
6
CONTINUOUS
66
1
70
1
0
VERTEX
8
1
10
5.306
20
1.714
0
VERTEX
8
1
10
5.440
20
1.703
0
VERTEX
8
1
10
5.471
20
1.699
0
VERTEX
8
1
10
5.553
20
1.695
0
VERTEX
8
1
10
5.608
20
1.695
0
VERTEX
8
1
10
5.646
20
1.692
0
VERTEX
8
1
10
5.666
20
1.676
0
VERTEX
8
1
10
5.674
20
1.640
0
VERTEX
8
1
10
5.677
20
1.623
0
VERTEX
8
1
10
5.689
20
1.584
0
VERTEX
8
1
10
5.697
20
1.559
0
VERTEX
8
1
10
5.681
20
1.530
0
VERTEX
8
1
10
5.652
20
1.473
0
VERTEX
8
1
10
5.641
20
1.412
0
VERTEX
8
1
10
5.652
20
1.354
0
VERTEX
8
1
10
5.660
20
1.323
0
VERTEX
8
1
10
5.648
20
1.158
0
VERTEX
8
1
10
5.660
20
1.100
0
VERTEX
8
1
10
5.667
20
1.080
0
VERTEX
8
1
10
5.665
20
1.048
0
VERTEX
8
1
10
5.635
20
1.000
0
VERTEX
8
1
10
5.621
20
0.958
0
VERTEX
8
1
10
5.622
20
0.896
0
VERTEX
8
1
10
5.646
20
0.836
0
VERTEX
8
1
10
5.648
20
0.788
0
VERTEX
8
1
10
5.625
20
0.720
0
VERTEX
8
1
10
5.623
20
0.664
0
VERTEX
8
1
10
5.640
20
0.606
0
VERTEX
8
1
10
5.644
20
0.573
0
VERTEX
8
1
10
5.617
20
0.526
0
VERTEX
8
1
10
5.602
20
0.481
0
VERTEX
8
1
10
5.601
20
0.426
0
VERTEX
8
1
10
5.605
20
0.394
0
VERTEX
8
1
10
5.623
20
0.335
0
VERTEX
8
1
10
5.645
20
0.281
0
VERTEX
8
1
10
5.644
20
0.244
0
VERTEX
8
1
10
5.635
20
0.185
0
VERTEX
8
1
10
5.620
20
0.169
0
VERTEX
8
1
10
5.591
20
0.169
0
VERTEX
8
1
10
5.548
20
0.176
0
VERTEX
8
1
10
5.446
20
0.187
0
VERTEX
8
1
10
5.332
20
0.200
0
VERTEX
8
1
10
5.287
20
0.203
0
VERTEX
8
1
10
5.260
20
0.209
0
VERTEX
8
1
10
5.246
20
0.225
0
VERTEX
8
1
10
5.250
20
0.290
0
VERTEX
8
1
10
5.245
20
0.344
0
VERTEX
8
1
10
5.247
20
0.497
0
VERTEX
8
1
10
5.248
20
0.663
0
VERTEX
8
1
10
5.237
20
0.958
0
VERTEX
8
1
10
5.238
20
1.026
0
VERTEX
8
1
10
5.240
20
1.174
0
VERTEX
8
1
10
5.244
20
1.264
0
VERTEX
8
1
10
5.248
20
1.309
0
VERTEX
8
1
10
5.250
20
1.475
0
VERTEX
8
1
10
5.258
20
1.577
0
VERTEX
8
1
10
5.263
20
1.617
0
VERTEX
8
1
10
5.269
20
1.688
0
VERTEX
8
1
10
5.285
20
1.711
  0
SEQEND
0
POLYLINE
8
1
6
CONTINUOUS
66
1
70
1
0
VERTEX
8
1
10
5.882
20
1.761
0
VERTEX
8
1
10
6.284
20
1.717
0
VERTEX
8
1
10
6.701
20
1.655
0
VERTEX
8
1
10
6.781
20
1.641
0
VERTEX
8
1
10
6.813
20
1.629
0
VERTEX
8
1
10
6.821
20
1.605
0
VERTEX
8
1
10
6.817
20
1.544
0
VERTEX
8
1
10
6.828
20
1.504
0
VERTEX
8
1
10
6.823
20
1.486
0
VERTEX
8
1
10
6.774
20
1.477
0
VERTEX
8
1
10
6.660
20
1.489
0
VERTEX
8
1
10
6.588
20
1.497
0
VERTEX
8
1
10
6.261
20
1.546
0
VERTEX
8
1
10
6.173
20
1.552
0
VERTEX
8
1
10
5.868
20
1.586
0
VERTEX
8
1
10
5.841
20
1.591
0
VERTEX
8
1
10
5.811
20
1.604
0
VERTEX
8
1
10
5.796
20
1.631
0
VERTEX
8
1
10
5.785
20
1.678
0
VERTEX
8
1
10
5.783
20
1.703
0
VERTEX
8
1
10
5.804
20
1.739
0
VERTEX
8
1
10
5.841
20
1.760
  0
SEQEND
0
POLYLINE
8
1
6
CONTINUOUS
66
1
70
1
0
VERTEX
8
1
10
7.714
20
1.776
0
VERTEX
8
1
10
7.724
20
1.758
0
VERTEX
8
1
10
7.728
20
1.697
0
VERTEX
8
1
10
7.736
20
1.593
0
VERTEX
8
1
10
7.748
20
1.529
0
VERTEX
8
1
10
7.750
20
1.317
0
VERTEX
8
1
10
7.751
20
1.291
0
VERTEX
8
1
10
7.754
20
1.242
0
VERTEX
8
1
10
7.740
20
1.220
0
VERTEX
8
1
10
7.708
20
1.208
0
VERTEX
8
1
10
7.654
20
1.195
0
VERTEX
8
1
10
7.605
20
1.191
0
VERTEX
8
1
10
7.589
20
1.203
0
VERTEX
8
1
10
7.585
20
1.240
0
VERTEX
8
1
10
7.583
20
1.303
0
VERTEX
8
1
10
7.581
20
1.450
0
VERTEX
8
1
10
7.581
20
1.562
0
VERTEX
8
1
10
7.581
20
1.617
0
VERTEX
8
1
10
7.581
20
1.644
0
VERTEX
8
1
10
7.580
20
1.707
0
VERTEX
8
1
10
7.585
20
1.741
0
VERTEX
8
1
10
7.604
20
1.758
0
VERTEX
8
1
10
7.643
20
1.767
0
VERTEX
8
1
10
7.700
20
1.777
  0
SEQEND
0
POLYLINE
8
1
6
CONTINUOUS
66
1
70
1
0
VERTEX
8
1
10
7.940
20
1.796
0
VERTEX
8
1
10
7.952
20
1.760
0
VERTEX
8
1
10
7.962
20
1.672
0
VERTEX
8
1
10
7.971
20
1.432
0
VERTEX
8
1
10
7.980
20
1.313
0
VERTEX
8
1
10
7.981
20
1.287
0
VERTEX
8
1
10
7.970
20
1.266
0
VERTEX
8
1
10
7.934
20
1.255
0
VERTEX
8
1
10
7.864
20
1.237
0
VERTEX
8
1
10
7.828
20
1.233
0
VERTEX
8
1
10
7.810
20
1.245
0
VERTEX
8
1
10
7.805
20
1.276
0
VERTEX
8
1
10
7.804
20
1.315
0
VERTEX
8
1
10
7.787
20
1.674
0
VERTEX
8
1
10
7.779
20
1.741
0
VERTEX
8
1
10
7.788
20
1.775
0
VERTEX
8
1
10
7.803
20
1.782
0
VERTEX
8
1
10
7.900
20
1.798
0
VERTEX
8
1
10
7.928
20
1.799
  0
SEQEND
0
POLYLINE
8
1
6
CONTINUOUS
66
1
70
1
0
VERTEX
8
1
10
8.065
20
1.804
0
VERTEX
8
1
10
8.069
20
1.752
0
VERTEX
8
1
10
8.066
20
1.721
0
VERTEX
8
1
10
8.081
20
1.400
0
VERTEX
8
1
10
8.102
20
0.977
0
VERTEX
8
1
10
8.104
20
0.924
0
VERTEX
8
1
10
8.111
20
0.858
0
VERTEX
8
1
10
8.118
20
0.770
0
VERTEX
8
1
10
8.131
20
0.694
0
VERTEX
8
1
10
8.133
20
0.669
0
VERTEX
8
1
10
8.097
20
0.650
0
VERTEX
8
1
10
7.992
20
0.619
0
VERTEX
8
1
10
7.935
20
0.604
0
VERTEX
8
1
10
7.913
20
0.599
0
VERTEX
8
1
10
7.849
20
0.585
0
VERTEX
8
1
10
7.804
20
0.580
0
VERTEX
8
1
10
7.761
20
0.582
0
VERTEX
8
1
10
7.721
20
0.579
0
VERTEX
8
1
10
7.675
20
0.565
0
VERTEX
8
1
10
7.641
20
0.556
0
VERTEX
8
1
10
7.617
20
0.560
0
VERTEX
8
1
10
7.613
20
0.575
0
VERTEX
8
1
10
7.633
20
0.595
0
VERTEX
8
1
10
7.658
20
0.604
0
VERTEX
8
1
10
7.814
20
0.634
0
VERTEX
8
1
10
7.853
20
0.640
0
VERTEX
8
1
10
8.006
20
0.668
0
VERTEX
8
1
10
8.030
20
0.675
0
VERTEX
8
1
10
8.049
20
0.691
0
VERTEX
8
1
10
8.055
20
0.731
0
VERTEX
8
1
10
8.058
20
0.820
0
VERTEX
8
1
10
8.048
20
0.961
0
VERTEX
8
1
10
8.038
20
1.097
0
VERTEX
8
1
10
8.038
20
1.163
0
VERTEX
8
1
10
8.024
20
1.435
0
VERTEX
8
1
10
8.007
20
1.737
0
VERTEX
8
1
10
8.006
20
1.789
0
VERTEX
8
1
10
8.019
20
1.813
0
VERTEX
8
1
10
8.047
20
1.819
  0
SEQEND
0
POLYLINE
8
1
6
CONTINUOUS
66
1
70
1
0
VERTEX
8
1
10
4.425
20
1.824
0
VERTEX
8
1
10
4.513
20
1.811
0
VERTEX
8
1
10
4.951
20
1.754
0
VERTEX
8
1
10
5.062
20
1.750
0
VERTEX
8
1
10
5.101
20
1.741
0
VERTEX
8
1
10
5.113
20
1.723
0
VERTEX
8
1
10
5.113
20
1.713
0
VERTEX
8
1
10
5.113
20
1.691
0
VERTEX
8
1
10
5.117
20
1.669
0
VERTEX
8
1
10
5.098
20
1.648
0
VERTEX
8
1
10
4.992
20
1.660
0
VERTEX
8
1
10
4.814
20
1.678
0
VERTEX
8
1
10
4.622
20
1.704
0
VERTEX
8
1
10
4.464
20
1.723
0
VERTEX
8
1
10
4.391
20
1.736
0
VERTEX
8
1
10
4.355
20
1.752
0
VERTEX
8
1
10
4.336
20
1.774
0
VERTEX
8
1
10
4.339
20
1.799
0
VERTEX
8
1
10
4.367
20
1.821
  0
SEQEND
0
POLYLINE
8
1
6
CONTINUOUS
66
1
70
1
0
VERTEX
8
1
10
10.024
20
1.839
0
VERTEX
8
1
10
10.029
20
1.803
0
VERTEX
8
1
10
10.021
20
1.774
0
VERTEX
8
1
10
10.000
20
1.755
0
VERTEX
8
1
10
9.964
20
1.757
0
VERTEX
8
1
10
9.866
20
1.759
0
VERTEX
8
1
10
9.819
20
1.766
0
VERTEX
8
1
10
9.808
20
1.789
0
VERTEX
8
1
10
9.814
20
1.822
0
VERTEX
8
1
10
9.836
20
1.835
0
VERTEX
8
1
10
9.999
20
1.853
  0
SEQEND
0
POLYLINE
8
1
6
CONTINUOUS
66
1
70
1
0
VERTEX
8
1
10
8.844
20
1.929
0
VERTEX
8
1
10
8.880
20
1.926
0
VERTEX
8
1
10
8.897
20
1.906
0
VERTEX
8
1
10
8.900
20
1.867
0
VERTEX
8
1
10
8.898
20
1.850
0
VERTEX
8
1
10
8.882
20
1.821
0
VERTEX
8
1
10
8.847
20
1.805
0
VERTEX
8
1
10
8.789
20
1.798
0
VERTEX
8
1
10
8.761
20
1.797
0
VERTEX
8
1
10
8.678
20
1.794
0
VERTEX
8
1
10
8.558
20
1.795
0
VERTEX
8
1
10
8.512
20
1.800
0
VERTEX
8
1
10
8.501
20
1.801
0
VERTEX
8
1
10
8.429
20
1.815
0
VERTEX
8
1
10
8.404
20
1.834
0
VERTEX
8
1
10
8.404
20
1.859
0
VERTEX
8
1
10
8.417
20
1.870
0
VERTEX
8
1
10
8.471
20
1.879
0
VERTEX
8
1
10
8.506
20
1.882
0
VERTEX
8
1
10
8.828
20
1.927
  0
SEQEND
0
POLYLINE
8
1
6
CONTINUOUS
66
1
70
1
0
VERTEX
8
1
10
6.689
20
1.914
0
VERTEX
8
1
10
6.705
20
1.865
0
VERTEX
8
1
10
6.703
20
1.811
0
VERTEX
8
1
10
6.683
20
1.778
0
VERTEX
8
1
10
6.651
20
1.765
0
VERTEX
8
1
10
6.623
20
1.768
0
VERTEX
8
1
10
6.598
20
1.790
0
VERTEX
8
1
10
6.585
20
1.832
0
VERTEX
8
1
10
6.592
20
1.887
0
VERTEX
8
1
10
6.616
20
1.926
0
VERTEX
8
1
10
6.649
20
1.941
  0
SEQEND
0
POLYLINE
8
1
6
CONTINUOUS
66
1
70
1
0
VERTEX
8
1
10
9.255
20
1.955
0
VERTEX
8
1
10
9.263
20
1.882
0
VERTEX
8
1
10
9.269
20
1.767
0
VERTEX
8
1
10
9.279
20
1.603
0
VERTEX
8
1
10
9.283
20
1.580
0
VERTEX
8
1
10
9.286
20
1.527
0
VERTEX
8
1
10
9.271
20
1.502
0
VERTEX
8
1
10
9.236
20
1.492
0
VERTEX
8
1
10
9.181
20
1.496
0
VERTEX
8
1
10
9.166
20
1.514
0
VERTEX
8
1
10
9.166
20
1.557
0
VERTEX
8
1
10
9.162
20
1.622
0
VERTEX
8
1
10
9.147
20
1.833
0
VERTEX
8
1
10
9.138
20
1.911
0
VERTEX
8
1
10
9.147
20
1.944
0
VERTEX
8
1
10
9.157
20
1.951
0
VERTEX
8
1
10
9.211
20
1.962
0
VERTEX
8
1
10
9.245
20
1.963
  0
SEQEND
0
POLYLINE
8
1
6
CONTINUOUS
66
1
70
1
0
VERTEX
8
1
10
9.416
20
1.982
0
VERTEX
8
1
10
9.431
20
1.971
0
VERTEX
8
1
10
9.435
20
1.946
0
VERTEX
8
1
10
9.440
20
1.879
0
VERTEX
8
1
10
9.444
20
1.783
0
VERTEX
8
1
10
9.444
20
1.751
0
VERTEX
8
1
10
9.449
20
1.670
0
VERTEX
8
1
10
9.458
20
1.608
0
VERTEX
8
1
10
9.465
20
1.564
0
VERTEX
8
1
10
9.458
20
1.538
0
VERTEX
8
1
10
9.431
20
1.524
0
VERTEX
8
1
10
9.383
20
1.515
0
VERTEX
8
1
10
9.364
20
1.518
0
VERTEX
8
1
10
9.347
20
1.540
0
VERTEX
8
1
10
9.341
20
1.606
0
VERTEX
8
1
10
9.340
20
1.642
0
VERTEX
8
1
10
9.333
20
1.685
0
VERTEX
8
1
10
9.329
20
1.880
0
VERTEX
8
1
10
9.328
20
1.906
0
VERTEX
8
1
10
9.326
20
1.944
0
VERTEX
8
1
10
9.335
20
1.965
0
VERTEX
8
1
10
9.362
20
1.975
0
VERTEX
8
1
10
9.408
20
1.982
  0
SEQEND
0
POLYLINE
8
1
6
CONTINUOUS
66
1
70
1
0
VERTEX
8
1
10
9.515
20
1.984
0
VERTEX
8
1
10
9.527
20
1.971
0
VERTEX
8
1
10
9.531
20
1.922
0
VERTEX
8
1
10
9.535
20
1.854
0
VERTEX
8
1
10
9.544
20
1.669
0
VERTEX
8
1
10
9.549
20
1.565
0
VERTEX
8
1
10
9.551
20
1.510
0
VERTEX
8
1
10
9.553
20
1.481
0
VERTEX
8
1
10
9.560
20
1.413
0
VERTEX
8
1
10
9.578
20
1.195
0
VERTEX
8
1
10
9.581
20
1.081
0
VERTEX
8
1
10
9.566
20
1.032
0
VERTEX
8
1
10
9.534
20
1.002
0
VERTEX
8
1
10
9.493
20
0.992
0
VERTEX
8
1
10
9.303
20
0.962
0
VERTEX
8
1
10
9.255
20
0.951
0
VERTEX
8
1
10
9.207
20
0.945
0
VERTEX
8
1
10
9.194
20
0.957
0
VERTEX
8
1
10
9.204
20
0.973
0
VERTEX
8
1
10
9.236
20
0.981
0
VERTEX
8
1
10
9.275
20
0.984
0
VERTEX
8
1
10
9.461
20
1.019
0
VERTEX
8
1
10
9.495
20
1.028
0
VERTEX
8
1
10
9.529
20
1.043
0
VERTEX
8
1
10
9.543
20
1.072
0
VERTEX
8
1
10
9.546
20
1.116
0
VERTEX
8
1
10
9.543
20
1.181
0
VERTEX
8
1
10
9.529
20
1.478
0
VERTEX
8
1
10
9.525
20
1.525
0
VERTEX
8
1
10
9.512
20
1.674
0
VERTEX
8
1
10
9.506
20
1.727
0
VERTEX
8
1
10
9.503
20
1.750
0
VERTEX
8
1
10
9.502
20
1.847
0
VERTEX
8
1
10
9.498
20
1.891
0
VERTEX
8
1
10
9.496
20
1.962
0
VERTEX
8
1
10
9.507
20
1.982
  0
SEQEND
0
POLYLINE
8
1
6
CONTINUOUS
66
1
70
1
0
VERTEX
8
1
10
4.246
20
2.042
0
VERTEX
8
1
10
4.273
20
2.019
0
VERTEX
8
1
10
4.286
20
1.975
0
VERTEX
8
1
10
4.278
20
1.934
0
VERTEX
8
1
10
4.252
20
1.913
0
VERTEX
8
1
10
4.220
20
1.914
0
VERTEX
8
1
10
4.196
20
1.937
0
VERTEX
8
1
10
4.184
20
1.981
0
VERTEX
8
1
10
4.193
20
2.022
0
VERTEX
8
1
10
4.218
20
2.042
  0
SEQEND
0
POLYLINE
8
1
6
CONTINUOUS
66
1
70
1
0
VERTEX
8
1
10
4.404
20
2.054
0
VERTEX
8
1
10
4.453
20
2.050
0
VERTEX
8
1
10
4.475
20
2.053
0
VERTEX
8
1
10
4.633
20
2.037
0
VERTEX
8
1
10
4.673
20
2.034
0
VERTEX
8
1
10
4.841
20
2.034
0
VERTEX
8
1
10
4.954
20
2.040
0
VERTEX
8
1
10
5.171
20
2.036
0
VERTEX
8
1
10
5.213
20
2.038
0
VERTEX
8
1
10
5.267
20
2.033
0
VERTEX
8
1
10
5.342
20
2.021
0
VERTEX
8
1
10
5.433
20
2.016
0
VERTEX
8
1
10
5.819
20
2.013
0
VERTEX
8
1
10
5.924
20
2.009
0
VERTEX
8
1
10
5.992
20
2.004
0
VERTEX
8
1
10
6.402
20
1.988
0
VERTEX
8
1
10
6.481
20
1.989
0
VERTEX
8
1
10
6.543
20
1.980
0
VERTEX
8
1
10
6.548
20
1.969
0
VERTEX
8
1
10
6.515
20
1.908
0
VERTEX
8
1
10
6.511
20
1.838
0
VERTEX
8
1
10
6.514
20
1.809
0
VERTEX
8
1
10
6.502
20
1.800
0
VERTEX
8
1
10
6.473
20
1.801
0
VERTEX
8
1
10
6.424
20
1.809
0
VERTEX
8
1
10
6.382
20
1.814
0
VERTEX
8
1
10
6.241
20
1.816
0
VERTEX
8
1
10
6.160
20
1.823
0
VERTEX
8
1
10
5.971
20
1.848
0
VERTEX
8
1
10
5.923
20
1.850
0
VERTEX
8
1
10
5.825
20
1.851
0
VERTEX
8
1
10
5.686
20
1.853
0
VERTEX
8
1
10
5.610
20
1.853
0
VERTEX
8
1
10
5.315
20
1.882
0
VERTEX
8
1
10
5.179
20
1.889
0
VERTEX
8
1
10
5.088
20
1.894
0
VERTEX
8
1
10
5.000
20
1.907
0
VERTEX
8
1
10
4.938
20
1.911
0
VERTEX
8
1
10
4.868
20
1.911
0
VERTEX
8
1
10
4.711
20
1.925
0
VERTEX
8
1
10
4.631
20
1.936
0
VERTEX
8
1
10
4.553
20
1.939
0
VERTEX
8
1
10
4.457
20
1.936
0
VERTEX
8
1
10
4.397
20
1.936
0
VERTEX
8
1
10
4.370
20
1.945
0
VERTEX
8
1
10
4.359
20
1.969
0
VERTEX
8
1
10
4.356
20
2.018
0
VERTEX
8
1
10
4.352
20
2.033
0
VERTEX
8
1
10
4.356
20
2.051
  0
SEQEND
0
POLYLINE
8
1
6
CONTINUOUS
66
1
70
1
0
VERTEX
8
1
10
10.026
20
2.055
0
VERTEX
8
1
10
10.035
20
2.020
0
VERTEX
8
1
10
10.023
20
1.978
0
VERTEX
8
1
10
9.999
20
1.958
0
VERTEX
8
1
10
9.979
20
1.956
0
VERTEX
8
1
10
9.907
20
1.964
0
VERTEX
8
1
10
9.845
20
1.961
0
VERTEX
8
1
10
9.822
20
1.963
0
VERTEX
8
1
10
9.807
20
1.982
0
VERTEX
8
1
10
9.808
20
2.030
0
VERTEX
8
1
10
9.814
20
2.046
0
VERTEX
8
1
10
9.830
20
2.050
0
VERTEX
8
1
10
9.965
20
2.067
0
VERTEX
8
1
10
9.990
20
2.069
  0
SEQEND
0
POLYLINE
8
1
6
CONTINUOUS
66
1
70
1
0
VERTEX
8
1
10
6.940
20
2.175
0
VERTEX
8
1
10
6.964
20
2.160
0
VERTEX
8
1
10
6.981
20
2.128
0
VERTEX
8
1
10
6.987
20
2.080
0
VERTEX
8
1
10
6.972
20
2.033
0
VERTEX
8
1
10
6.942
20
2.002
0
VERTEX
8
1
10
6.915
20
1.996
0
VERTEX
8
1
10
6.894
20
2.012
0
VERTEX
8
1
10
6.880
20
2.056
0
VERTEX
8
1
10
6.881
20
2.119
0
VERTEX
8
1
10
6.900
20
2.158
0
VERTEX
8
1
10
6.932
20
2.175
  0
SEQEND
0
POLYLINE
8
1
6
CONTINUOUS
66
1
70
1
0
VERTEX
8
1
10
10.024
20
2.244
0
VERTEX
8
1
10
10.033
20
2.226
0
VERTEX
8
1
10
10.020
20
2.209
0
VERTEX
8
1
10
9.988
20
2.202
0
VERTEX
8
1
10
9.945
20
2.200
0
VERTEX
8
1
10
9.764
20
2.171
0
VERTEX
8
1
10
9.691
20
2.155
0
VERTEX
8
1
10
9.592
20
2.137
0
VERTEX
8
1
10
9.342
20
2.116
0
VERTEX
8
1
10
9.241
20
2.099
0
VERTEX
8
1
10
8.895
20
2.065
0
VERTEX
8
1
10
8.751
20
2.040
0
VERTEX
8
1
10
8.700
20
2.029
0
VERTEX
8
1
10
8.463
20
2.007
0
VERTEX
8
1
10
8.322
20
1.985
0
VERTEX
8
1
10
8.235
20
1.969
0
VERTEX
8
1
10
8.128
20
1.955
0
VERTEX
8
1
10
7.682
20
1.909
0
VERTEX
8
1
10
7.553
20
1.890
0
VERTEX
8
1
10
7.197
20
1.833
0
VERTEX
8
1
10
6.967
20
1.817
0
VERTEX
8
1
10
6.899
20
1.811
0
VERTEX
8
1
10
6.826
20
1.805
0
VERTEX
8
1
10
6.798
20
1.808
0
VERTEX
8
1
10
6.786
20
1.826
0
VERTEX
8
1
10
6.785
20
1.866
0
VERTEX
8
1
10
6.787
20
1.888
0
VERTEX
8
1
10
6.798
20
1.909
0
VERTEX
8
1
10
6.824
20
1.914
0
VERTEX
8
1
10
6.877
20
1.908
0
VERTEX
8
1
10
7.003
20
1.913
0
VERTEX
8
1
10
7.199
20
1.935
0
VERTEX
8
1
10
7.340
20
1.952
0
VERTEX
8
1
10
7.419
20
1.960
0
VERTEX
8
1
10
7.518
20
1.973
0
VERTEX
8
1
10
7.807
20
2.009
0
VERTEX
8
1
10
8.137
20
2.052
0
VERTEX
8
1
10
8.510
20
2.080
0
VERTEX
8
1
10
8.686
20
2.109
0
VERTEX
8
1
10
8.836
20
2.134
0
VERTEX
8
1
10
8.912
20
2.137
0
VERTEX
8
1
10
9.142
20
2.164
0
VERTEX
8
1
10
9.260
20
2.168
0
VERTEX
8
1
10
9.373
20
2.181
0
VERTEX
8
1
10
9.519
20
2.189
0
VERTEX
8
1
10
9.630
20
2.205
0
VERTEX
8
1
10
9.705
20
2.216
0
VERTEX
8
1
10
9.783
20
2.223
0
VERTEX
8
1
10
9.862
20
2.229
0
VERTEX
8
1
10
9.946
20
2.243
0
VERTEX
8
1
10
9.992
20
2.251
  0
SEQEND
0
POLYLINE
8
1
6
CONTINUOUS
66
1
70
1
0
VERTEX
8
1
10
4.472
20
2.313
0
VERTEX
8
1
10
4.718
20
2.305
0
VERTEX
8
1
10
4.988
20
2.298
0
VERTEX
8
1
10
5.382
20
2.262
0
VERTEX
8
1
10
5.436
20
2.260
0
VERTEX
8
1
10
5.589
20
2.257
0
VERTEX
8
1
10
5.704
20
2.252
0
VERTEX
8
1
10
5.765
20
2.244
0
VERTEX
8
1
10
5.789
20
2.239
0
VERTEX
8
1
10
5.966
20
2.230
0
VERTEX
8
1
10
6.037
20
2.228
0
VERTEX
8
1
10
6.235
20
2.220
0
VERTEX
8
1
10
6.346
20
2.218
0
VERTEX
8
1
10
6.408
20
2.220
0
VERTEX
8
1
10
6.449
20
2.217
0
VERTEX
8
1
10
6.549
20
2.208
0
VERTEX
8
1
10
6.580
20
2.208
0
VERTEX
8
1
10
6.673
20
2.203
0
VERTEX
8
1
10
6.722
20
2.207
0
VERTEX
8
1
10
6.765
20
2.209
0
VERTEX
8
1
10
6.788
20
2.200
0
VERTEX
8
1
10
6.794
20
2.172
0
VERTEX
8
1
10
6.792
20
2.113
0
VERTEX
8
1
10
6.790
20
2.088
0
VERTEX
8
1
10
6.776
20
2.082
0
VERTEX
8
1
10
6.742
20
2.087
0
VERTEX
8
1
10
6.688
20
2.094
0
VERTEX
8
1
10
6.167
20
2.129
0
VERTEX
8
1
10
5.828
20
2.158
0
VERTEX
8
1
10
5.674
20
2.159
0
VERTEX
8
1
10
5.383
20
2.156
0
VERTEX
8
1
10
5.249
20
2.156
0
VERTEX
8
1
10
5.167
20
2.158
0
VERTEX
8
1
10
5.116
20
2.163
0
VERTEX
8
1
10
5.086
20
2.167
0
VERTEX
8
1
10
4.883
20
2.168
0
VERTEX
8
1
10
4.769
20
2.171
0
VERTEX
8
1
10
4.580
20
2.196
0
VERTEX
8
1
10
4.474
20
2.209
0
VERTEX
8
1
10
4.434
20
2.209
0
VERTEX
8
1
10
4.316
20
2.216
0
VERTEX
8
1
10
4.265
20
2.229
0
VERTEX
8
1
10
4.245
20
2.246
0
VERTEX
8
1
10
4.247
20
2.270
0
VERTEX
8
1
10
4.281
20
2.299
0
VERTEX
8
1
10
4.392
20
2.313
  0
SEQEND
0
POLYLINE
8
1
6
CONTINUOUS
66
1
70
1
0
VERTEX
8
1
10
6.646
20
2.445
0
VERTEX
8
1
10
6.667
20
2.410
0
VERTEX
8
1
10
6.673
20
2.356
0
VERTEX
8
1
10
6.659
20
2.318
0
VERTEX
8
1
10
6.628
20
2.299
0
VERTEX
8
1
10
6.599
20
2.306
0
VERTEX
8
1
10
6.579
20
2.337
0
VERTEX
8
1
10
6.571
20
2.392
0
VERTEX
8
1
10
6.584
20
2.435
0
VERTEX
8
1
10
6.611
20
2.455
  0
SEQEND
0
POLYLINE
8
1
6
CONTINUOUS
66
1
70
1
0
VERTEX
8
1
10
10.017
20
2.486
0
VERTEX
8
1
10
10.049
20
2.467
0
VERTEX
8
1
10
10.056
20
2.445
0
VERTEX
8
1
10
10.038
20
2.426
0
VERTEX
8
1
10
10.022
20
2.419
0
VERTEX
8
1
10
9.888
20
2.415
0
VERTEX
8
1
10
9.692
20
2.385
0
VERTEX
8
1
10
9.387
20
2.325
0
VERTEX
8
1
10
9.330
20
2.313
0
VERTEX
8
1
10
9.097
20
2.282
0
VERTEX
8
1
10
8.534
20
2.215
0
VERTEX
8
1
10
8.272
20
2.181
0
VERTEX
8
1
10
7.976
20
2.156
0
VERTEX
8
1
10
7.584
20
2.119
0
VERTEX
8
1
10
7.304
20
2.106
0
VERTEX
8
1
10
7.174
20
2.104
0
VERTEX
8
1
10
7.132
20
2.099
0
VERTEX
8
1
10
7.094
20
2.097
0
VERTEX
8
1
10
7.075
20
2.108
0
VERTEX
8
1
10
7.068
20
2.139
0
VERTEX
8
1
10
7.057
20
2.181
0
VERTEX
8
1
10
7.083
20
2.203
0
VERTEX
8
1
10
7.201
20
2.219
0
VERTEX
8
1
10
7.227
20
2.222
0
VERTEX
8
1
10
7.262
20
2.229
0
VERTEX
8
1
10
7.497
20
2.248
0
VERTEX
8
1
10
7.618
20
2.261
0
VERTEX
8
1
10
7.691
20
2.266
0
VERTEX
8
1
10
7.860
20
2.282
0
VERTEX
8
1
10
8.328
20
2.324
0
VERTEX
8
1
10
8.456
20
2.329
0
VERTEX
8
1
10
10.003
20
2.487
  0
SEQEND
0
POLYLINE
8
1
6
CONTINUOUS
66
1
70
1
0
VERTEX
8
1
10
5.298
20
2.547
0
VERTEX
8
1
10
5.392
20
2.541
0
VERTEX
8
1
10
5.554
20
2.537
0
VERTEX
8
1
10
5.651
20
2.534
0
VERTEX
8
1
10
5.813
20
2.518
0
VERTEX
8
1
10
5.897
20
2.510
0
VERTEX
8
1
10
6.015
20
2.508
0
VERTEX
8
1
10
6.083
20
2.500
0
VERTEX
8
1
10
6.175
20
2.489
0
VERTEX
8
1
10
6.381
20
2.492
0
VERTEX
8
1
10
6.395
20
2.493
0
VERTEX
8
1
10
6.485
20
2.498
0
VERTEX
8
1
10
6.510
20
2.489
0
VERTEX
8
1
10
6.510
20
2.471
0
VERTEX
8
1
10
6.493
20
2.431
0
VERTEX
8
1
10
6.485
20
2.387
0
VERTEX
8
1
10
6.459
20
2.366
0
VERTEX
8
1
10
6.386
20
2.367
0
VERTEX
8
1
10
6.350
20
2.369
0
VERTEX
8
1
10
6.162
20
2.367
0
VERTEX
8
1
10
5.963
20
2.379
0
VERTEX
8
1
10
5.807
20
2.379
0
VERTEX
8
1
10
5.702
20
2.372
0
VERTEX
8
1
10
5.351
20
2.372
0
VERTEX
8
1
10
5.116
20
2.396
0
VERTEX
8
1
10
5.014
20
2.396
0
VERTEX
8
1
10
4.718
20
2.411
0
VERTEX
8
1
10
4.520
20
2.402
0
VERTEX
8
1
10
4.468
20
2.402
0
VERTEX
8
1
10
4.430
20
2.406
0
VERTEX
8
1
10
4.410
20
2.417
0
VERTEX
8
1
10
4.408
20
2.441
0
VERTEX
8
1
10
4.419
20
2.498
0
VERTEX
8
1
10
4.418
20
2.508
0
VERTEX
8
1
10
4.423
20
2.531
0
VERTEX
8
1
10
4.445
20
2.538
0
VERTEX
8
1
10
4.744
20
2.537
0
VERTEX
8
1
10
5.019
20
2.536
0
VERTEX
8
1
10
5.186
20
2.547
  0
SEQEND
0
POLYLINE
8
1
6
CONTINUOUS
66
1
70
1
0
VERTEX
8
1
10
4.337
20
2.543
0
VERTEX
8
1
10
4.356
20
2.509
0
VERTEX
8
1
10
4.356
20
2.459
0
VERTEX
8
1
10
4.336
20
2.418
0
VERTEX
8
1
10
4.302
20
2.397
0
VERTEX
8
1
10
4.261
20
2.405
0
VERTEX
8
1
10
4.241
20
2.437
0
VERTEX
8
1
10
4.237
20
2.489
0
VERTEX
8
1
10
4.253
20
2.534
0
VERTEX
8
1
10
4.281
20
2.555
  0
SEQEND
0
POLYLINE
8
1
6
CONTINUOUS
66
1
70
1
0
VERTEX
8
1
10
10.367
20
2.719
0
VERTEX
8
1
10
10.387
20
2.698
0
VERTEX
8
1
10
10.386
20
2.666
0
VERTEX
8
1
10
10.368
20
2.634
0
VERTEX
8
1
10
10.332
20
2.615
0
VERTEX
8
1
10
10.227
20
2.613
0
VERTEX
8
1
10
10.005
20
2.600
0
VERTEX
8
1
10
9.965
20
2.605
0
VERTEX
8
1
10
9.874
20
2.601
0
VERTEX
8
1
10
9.618
20
2.602
0
VERTEX
8
1
10
9.460
20
2.605
0
VERTEX
8
1
10
9.365
20
2.603
0
VERTEX
8
1
10
9.305
20
2.598
0
VERTEX
8
1
10
8.937
20
2.573
0
VERTEX
8
1
10
8.838
20
2.561
0
VERTEX
8
1
10
8.748
20
2.550
0
VERTEX
8
1
10
8.516
20
2.550
0
VERTEX
8
1
10
8.508
20
2.550
0
VERTEX
8
1
10
8.461
20
2.545
0
VERTEX
8
1
10
8.417
20
2.547
0
VERTEX
8
1
10
8.407
20
2.558
0
VERTEX
8
1
10
8.424
20
2.566
0
VERTEX
8
1
10
8.552
20
2.578
0
VERTEX
8
1
10
8.575
20
2.579
0
VERTEX
8
1
10
8.864
20
2.603
0
VERTEX
8
1
10
9.530
20
2.674
0
VERTEX
8
1
10
9.883
20
2.687
0
VERTEX
8
1
10
10.124
20
2.713
0
VERTEX
8
1
10
10.315
20
2.724
  0
SEQEND
0
POLYLINE
8
1
6
CONTINUOUS
66
1
70
1
0
VERTEX
8
1
10
5.688
20
2.820
0
VERTEX
8
1
10
5.784
20
2.819
0
VERTEX
8
1
10
6.049
20
2.811
0
VERTEX
8
1
10
6.181
20
2.806
0
VERTEX
8
1
10
6.260
20
2.803
0
VERTEX
8
1
10
6.310
20
2.801
0
VERTEX
8
1
10
6.405
20
2.802
0
VERTEX
8
1
10
6.436
20
2.784
0
VERTEX
8
1
10
6.521
20
2.648
0
VERTEX
8
1
10
6.518
20
2.619
0
VERTEX
8
1
10
6.487
20
2.610
0
VERTEX
8
1
10
6.388
20
2.615
0
VERTEX
8
1
10
6.362
20
2.619
0
VERTEX
8
1
10
6.300
20
2.625
0
VERTEX
8
1
10
5.994
20
2.636
0
VERTEX
8
1
10
5.738
20
2.652
0
VERTEX
8
1
10
5.553
20
2.656
0
VERTEX
8
1
10
5.181
20
2.674
0
VERTEX
8
1
10
5.035
20
2.674
0
VERTEX
8
1
10
4.797
20
2.671
0
VERTEX
8
1
10
4.564
20
2.661
0
VERTEX
8
1
10
4.541
20
2.660
0
VERTEX
8
1
10
4.470
20
2.662
0
VERTEX
8
1
10
4.400
20
2.665
0
VERTEX
8
1
10
4.377
20
2.667
0
VERTEX
8
1
10
4.352
20
2.676
0
VERTEX
8
1
10
4.323
20
2.703
0
VERTEX
8
1
10
4.318
20
2.735
0
VERTEX
8
1
10
4.336
20
2.769
0
VERTEX
8
1
10
4.374
20
2.798
0
VERTEX
8
1
10
4.419
20
2.805
0
VERTEX
8
1
10
4.480
20
2.806
0
VERTEX
8
1
10
4.523
20
2.812
0
VERTEX
8
1
10
4.712
20
2.807
0
VERTEX
8
1
10
4.758
20
2.805
0
VERTEX
8
1
10
4.836
20
2.803
0
VERTEX
8
1
10
4.996
20
2.801
0
VERTEX
8
1
10
5.164
20
2.801
0
VERTEX
8
1
10
5.243
20
2.804
0
VERTEX
8
1
10
5.292
20
2.808
0
VERTEX
8
1
10
5.602
20
2.818
  0
SEQEND
0
POLYLINE
8
1
6
CONTINUOUS
66
1
70
1
0
VERTEX
8
1
10
9.391
20
2.917
0
VERTEX
8
1
10
9.397
20
2.909
0
VERTEX
8
1
10
9.385
20
2.904
0
VERTEX
8
1
10
9.335
20
2.894
0
VERTEX
8
1
10
9.280
20
2.884
0
VERTEX
8
1
10
9.191
20
2.860
0
VERTEX
8
1
10
8.920
20
2.801
0
VERTEX
8
1
10
8.691
20
2.740
0
VERTEX
8
1
10
8.558
20
2.712
0
VERTEX
8
1
10
8.473
20
2.698
0
VERTEX
8
1
10
8.442
20
2.688
0
VERTEX
8
1
10
8.421
20
2.674
0
VERTEX
8
1
10
8.399
20
2.668
0
VERTEX
8
1
10
8.045
20
2.639
0
VERTEX
8
1
10
7.683
20
2.601
0
VERTEX
8
1
10
7.602
20
2.594
0
VERTEX
8
1
10
7.344
20
2.566
0
VERTEX
8
1
10
7.250
20
2.558
0
VERTEX
8
1
10
7.193
20
2.556
0
VERTEX
8
1
10
7.160
20
2.559
0
VERTEX
8
1
10
7.118
20
2.571
0
VERTEX
8
1
10
7.086
20
2.602
0
VERTEX
8
1
10
7.055
20
2.656
0
VERTEX
8
1
10
7.026
20
2.704
0
VERTEX
8
1
10
7.024
20
2.726
0
VERTEX
8
1
10
7.042
20
2.740
0
VERTEX
8
1
10
7.081
20
2.750
0
VERTEX
8
1
10
7.139
20
2.756
0
VERTEX
8
1
10
7.468
20
2.790
0
VERTEX
8
1
10
7.750
20
2.814
0
VERTEX
8
1
10
7.822
20
2.822
0
VERTEX
8
1
10
8.124
20
2.851
0
VERTEX
8
1
10
8.307
20
2.865
0
VERTEX
8
1
10
8.888
20
2.892
0
VERTEX
8
1
10
9.327
20
2.919
  0
SEQEND
0
POLYLINE
8
1
6
CONTINUOUS
66
1
70
1
0
VERTEX
8
1
10
5.732
20
3.057
0
VERTEX
8
1
10
5.996
20
3.070
0
VERTEX
8
1
10
6.222
20
3.075
0
VERTEX
8
1
10
6.252
20
3.063
0
VERTEX
8
1
10
6.292
20
3.015
0
VERTEX
8
1
10
6.322
20
2.963
0
VERTEX
8
1
10
6.335
20
2.942
0
VERTEX
8
1
10
6.344
20
2.922
0
VERTEX
8
1
10
6.336
20
2.916
0
VERTEX
8
1
10
6.307
20
2.919
0
VERTEX
8
1
10
6.251
20
2.926
0
VERTEX
8
1
10
6.177
20
2.936
0
VERTEX
8
1
10
6.115
20
2.945
0
VERTEX
8
1
10
6.053
20
2.946
0
VERTEX
8
1
10
5.846
20
2.941
0
VERTEX
8
1
10
5.479
20
2.943
0
VERTEX
8
1
10
5.360
20
2.958
0
VERTEX
8
1
10
5.280
20
2.958
0
VERTEX
8
1
10
5.205
20
2.955
0
VERTEX
8
1
10
5.061
20
2.957
0
VERTEX
8
1
10
4.963
20
2.962
0
VERTEX
8
1
10
4.915
20
2.964
0
VERTEX
8
1
10
4.526
20
2.969
0
VERTEX
8
1
10
4.461
20
2.967
0
VERTEX
8
1
10
4.435
20
2.978
0
VERTEX
8
1
10
4.433
20
2.998
0
VERTEX
8
1
10
4.464
20
3.035
0
VERTEX
8
1
10
4.513
20
3.055
0
VERTEX
8
1
10
4.594
20
3.067
0
VERTEX
8
1
10
4.816
20
3.065
0
VERTEX
8
1
10
4.910
20
3.064
0
VERTEX
8
1
10
5.280
20
3.075
0
VERTEX
8
1
10
5.412
20
3.076
  0
SEQEND
0
POLYLINE
8
1
6
CONTINUOUS
66
1
70
1
0
VERTEX
8
1
10
9.078
20
3.117
0
VERTEX
8
1
10
9.249
20
3.114
0
VERTEX
8
1
10
9.383
20
3.113
0
VERTEX
8
1
10
9.454
20
3.103
0
VERTEX
8
1
10
9.496
20
3.093
0
VERTEX
8
1
10
9.647
20
3.082
0
VERTEX
8
1
10
9.817
20
3.070
0
VERTEX
8
1
10
9.827
20
3.068
0
VERTEX
8
1
10
9.834
20
3.058
0
VERTEX
8
1
10
9.818
20
3.050
0
VERTEX
8
1
10
9.702
20
3.033
0
VERTEX
8
1
10
9.666
20
3.030
0
VERTEX
8
1
10
9.534
20
3.028
0
VERTEX
8
1
10
9.211
20
3.008
0
VERTEX
8
1
10
8.960
20
2.992
0
VERTEX
8
1
10
8.742
20
2.984
0
VERTEX
8
1
10
7.924
20
2.932
0
VERTEX
8
1
10
7.576
20
2.900
0
VERTEX
8
1
10
7.345
20
2.874
0
VERTEX
8
1
10
7.103
20
2.853
0
VERTEX
8
1
10
7.072
20
2.851
0
VERTEX
8
1
10
6.991
20
2.843
0
VERTEX
8
1
10
6.945
20
2.857
0
VERTEX
8
1
10
6.903
20
2.891
0
VERTEX
8
1
10
6.897
20
2.898
0
VERTEX
8
1
10
6.853
20
2.952
0
VERTEX
8
1
10
6.826
20
2.989
0
VERTEX
8
1
10
6.822
20
2.999
0
VERTEX
8
1
10
6.827
20
3.015
0
VERTEX
8
1
10
6.855
20
3.018
0
VERTEX
8
1
10
6.884
20
3.013
0
VERTEX
8
1
10
7.001
20
3.012
0
VERTEX
8
1
10
7.142
20
3.022
0
VERTEX
8
1
10
7.543
20
3.034
0
VERTEX
8
1
10
8.104
20
3.046
0
VERTEX
8
1
10
8.611
20
3.085
0
VERTEX
8
1
10
8.820
20
3.096
0
VERTEX
8
1
10
9.012
20
3.116
  0
SEQEND
0
POLYLINE
8
1
6
CONTINUOUS
66
1
70
1
0
VERTEX
8
1
10
8.546
20
3.348
0
VERTEX
8
1
10
8.778
20
3.345
0
VERTEX
8
1
10
9.000
20
3.331
0
VERTEX
8
1
10
9.061
20
3.304
0
VERTEX
8
1
10
9.116
20
3.278
0
VERTEX
8
1
10
9.148
20
3.267
0
VERTEX
8
1
10
9.154
20
3.256
0
VERTEX
8
1
10
9.148
20
3.251
0
VERTEX
8
1
10
9.098
20
3.242
0
VERTEX
8
1
10
9.074
20
3.241
0
VERTEX
8
1
10
9.026
20
3.237
0
VERTEX
8
1
10
8.976
20
3.226
0
VERTEX
8
1
10
8.933
20
3.218
0
VERTEX
8
1
10
8.884
20
3.215
0
VERTEX
8
1
10
8.821
20
3.213
0
VERTEX
8
1
10
8.740
20
3.214
0
VERTEX
8
1
10
8.682
20
3.213
0
VERTEX
8
1
10
8.506
20
3.196
0
VERTEX
8
1
10
8.443
20
3.180
0
VERTEX
8
1
10
8.386
20
3.167
0
VERTEX
8
1
10
8.299
20
3.157
0
VERTEX
8
1
10
8.096
20
3.148
0
VERTEX
8
1
10
7.958
20
3.144
0
VERTEX
8
1
10
7.881
20
3.140
0
VERTEX
8
1
10
7.402
20
3.136
0
VERTEX
8
1
10
7.167
20
3.126
0
VERTEX
8
1
10
6.941
20
3.115
0
VERTEX
8
1
10
6.806
20
3.123
0
VERTEX
8
1
10
6.758
20
3.130
0
VERTEX
8
1
10
6.701
20
3.151
0
VERTEX
8
1
10
6.662
20
3.189
0
VERTEX
8
1
10
6.620
20
3.238
0
VERTEX
8
1
10
6.610
20
3.263
0
VERTEX
8
1
10
6.623
20
3.277
0
VERTEX
8
1
10
6.657
20
3.282
0
VERTEX
8
1
10
7.049
20
3.304
0
VERTEX
8
1
10
7.225
20
3.309
0
VERTEX
8
1
10
7.330
20
3.319
0
VERTEX
8
1
10
7.687
20
3.325
0
VERTEX
8
1
10
8.081
20
3.341
0
VERTEX
8
1
10
8.286
20
3.337
0
VERTEX
8
1
10
8.454
20
3.344
  0
SEQEND
0
POLYLINE
8
1
6
CONTINUOUS
66
1
70
1
0
VERTEX
8
1
10
5.786
20
3.356
0
VERTEX
8
1
10
5.820
20
3.353
0
VERTEX
8
1
10
5.938
20
3.350
0
VERTEX
8
1
10
6.000
20
3.346
0
VERTEX
8
1
10
6.025
20
3.341
0
VERTEX
8
1
10
6.041
20
3.329
0
VERTEX
8
1
10
6.098
20
3.258
0
VERTEX
8
1
10
6.122
20
3.223
0
VERTEX
8
1
10
6.128
20
3.194
0
VERTEX
8
1
10
6.105
20
3.187
0
VERTEX
8
1
10
6.004
20
3.188
0
VERTEX
8
1
10
5.910
20
3.195
0
VERTEX
8
1
10
5.826
20
3.198
0
VERTEX
8
1
10
5.648
20
3.197
0
VERTEX
8
1
10
5.518
20
3.196
0
VERTEX
8
1
10
5.393
20
3.198
0
VERTEX
8
1
10
5.279
20
3.200
0
VERTEX
8
1
10
5.246
20
3.198
0
VERTEX
8
1
10
5.054
20
3.201
0
VERTEX
8
1
10
5.011
20
3.203
0
VERTEX
8
1
10
4.926
20
3.201
0
VERTEX
8
1
10
4.834
20
3.202
0
VERTEX
8
1
10
4.723
20
3.212
0
VERTEX
8
1
10
4.683
20
3.215
0
VERTEX
8
1
10
4.653
20
3.225
0
VERTEX
8
1
10
4.648
20
3.245
0
VERTEX
8
1
10
4.662
20
3.275
0
VERTEX
8
1
10
4.671
20
3.286
0
VERTEX
8
1
10
4.702
20
3.310
0
VERTEX
8
1
10
4.753
20
3.315
0
VERTEX
8
1
10
4.988
20
3.315
0
VERTEX
8
1
10
5.286
20
3.336
0
VERTEX
8
1
10
5.591
20
3.343
0
VERTEX
8
1
10
5.740
20
3.356
  0
SEQEND
0
POLYLINE
8
1
6
CONTINUOUS
66
1
70
1
0
VERTEX
8
1
10
9.059
20
3.557
0
VERTEX
8
1
10
9.048
20
3.548
0
VERTEX
8
1
10
8.978
20
3.518
0
VERTEX
8
1
10
8.950
20
3.507
0
VERTEX
8
1
10
8.874
20
3.487
0
VERTEX
8
1
10
8.579
20
3.469
0
VERTEX
8
1
10
8.516
20
3.441
0
VERTEX
8
1
10
8.052
20
3.436
0
VERTEX
8
1
10
7.814
20
3.424
0
VERTEX
8
1
10
7.457
20
3.414
0
VERTEX
8
1
10
7.053
20
3.398
0
VERTEX
8
1
10
6.557
20
3.370
0
VERTEX
8
1
10
6.505
20
3.381
0
VERTEX
8
1
10
6.462
20
3.418
0
VERTEX
8
1
10
6.443
20
3.460
0
VERTEX
8
1
10
6.459
20
3.475
0
VERTEX
8
1
10
6.501
20
3.485
0
VERTEX
8
1
10
6.646
20
3.494
0
VERTEX
8
1
10
6.892
20
3.512
0
VERTEX
8
1
10
7.051
20
3.512
0
VERTEX
8
1
10
7.436
20
3.528
0
VERTEX
8
1
10
7.748
20
3.548
0
VERTEX
8
1
10
7.964
20
3.547
0
VERTEX
8
1
10
8.008
20
3.544
0
VERTEX
8
1
10
8.358
20
3.546
0
VERTEX
8
1
10
8.489
20
3.550
0
VERTEX
8
1
10
8.753
20
3.552
0
VERTEX
8
1
10
8.887
20
3.551
0
VERTEX
8
1
10
9.036
20
3.560
  0
SEQEND
0
POLYLINE
8
1
6
CONTINUOUS
66
1
70
1
0
VERTEX
8
1
10
4.934
20
3.562
0
VERTEX
8
1
10
5.059
20
3.553
0
VERTEX
8
1
10
5.083
20
3.551
0
VERTEX
8
1
10
5.187
20
3.542
0
VERTEX
8
1
10
5.376
20
3.548
0
VERTEX
8
1
10
5.525
20
3.558
0
VERTEX
8
1
10
5.730
20
3.548
0
VERTEX
8
1
10
5.776
20
3.554
0
VERTEX
8
1
10
5.843
20
3.556
0
VERTEX
8
1
10
5.873
20
3.539
0
VERTEX
8
1
10
5.895
20
3.513
0
VERTEX
8
1
10
5.912
20
3.482
0
VERTEX
8
1
10
5.904
20
3.467
0
VERTEX
8
1
10
5.875
20
3.463
0
VERTEX
8
1
10
5.829
20
3.464
0
VERTEX
8
1
10
5.563
20
3.454
0
VERTEX
8
1
10
5.465
20
3.449
0
VERTEX
8
1
10
5.096
20
3.467
0
VERTEX
8
1
10
4.926
20
3.464
0
VERTEX
8
1
10
4.877
20
3.477
0
VERTEX
8
1
10
4.869
20
3.502
0
VERTEX
8
1
10
4.884
20
3.536
0
VERTEX
8
1
10
4.920
20
3.560
  0
SEQEND
0
POLYLINE
8
1
6
CONTINUOUS
66
1
70
1
0
VERTEX
8
1
10
7.386
20
3.733
0
VERTEX
8
1
10
7.859
20
3.727
0
VERTEX
8
1
10
8.127
20
3.715
0
VERTEX
8
1
10
8.224
20
3.714
0
VERTEX
8
1
10
8.591
20
3.717
0
VERTEX
8
1
10
8.698
20
3.715
0
VERTEX
8
1
10
8.770
20
3.710
0
VERTEX
8
1
10
8.811
20
3.708
0
VERTEX
8
1
10
8.820
20
3.699
0
VERTEX
8
1
10
8.791
20
3.683
0
VERTEX
8
1
10
8.735
20
3.680
0
VERTEX
8
1
10
8.631
20
3.682
0
VERTEX
8
1
10
8.473
20
3.684
0
VERTEX
8
1
10
8.407
20
3.677
0
VERTEX
8
1
10
8.303
20
3.672
0
VERTEX
8
1
10
8.248
20
3.671
0
VERTEX
8
1
10
8.183
20
3.662
0
VERTEX
8
1
10
8.104
20
3.651
0
VERTEX
8
1
10
7.855
20
3.648
0
VERTEX
8
1
10
7.808
20
3.648
0
VERTEX
8
1
10
7.416
20
3.629
0
VERTEX
8
1
10
6.865
20
3.609
0
VERTEX
8
1
10
6.705
20
3.599
0
VERTEX
8
1
10
6.504
20
3.581
0
VERTEX
8
1
10
6.425
20
3.575
0
VERTEX
8
1
10
6.381
20
3.580
0
VERTEX
8
1
10
6.331
20
3.613
0
VERTEX
8
1
10
6.310
20
3.630
0
VERTEX
8
1
10
6.274
20
3.679
0
VERTEX
8
1
10
6.273
20
3.704
0
VERTEX
8
1
10
6.294
20
3.716
0
VERTEX
8
1
10
6.492
20
3.728
0
VERTEX
8
1
10
6.581
20
3.736
0
VERTEX
8
1
10
6.759
20
3.732
0
VERTEX
8
1
10
6.949
20
3.729
0
VERTEX
8
1
10
7.223
20
3.737
  0
SEQEND
0
POLYLINE
8
1
6
CONTINUOUS
66
1
70
1
0
VERTEX
8
1
10
5.094
20
3.774
0
VERTEX
8
1
10
5.267
20
3.758
0
VERTEX
8
1
10
5.408
20
3.756
0
VERTEX
8
1
10
5.566
20
3.752
0
VERTEX
8
1
10
5.589
20
3.750
0
VERTEX
8
1
10
5.704
20
3.726
0
VERTEX
8
1
10
5.749
20
3.713
0
VERTEX
8
1
10
5.776
20
3.690
0
VERTEX
8
1
10
5.774
20
3.675
0
VERTEX
8
1
10
5.752
20
3.672
0
VERTEX
8
1
10
5.709
20
3.674
0
VERTEX
8
1
10
5.638
20
3.676
0
VERTEX
8
1
10
5.453
20
3.677
0
VERTEX
8
1
10
5.340
20
3.676
0
VERTEX
8
1
10
5.282
20
3.675
0
VERTEX
8
1
10
5.250
20
3.674
0
VERTEX
8
1
10
5.132
20
3.667
0
VERTEX
8
1
10
5.042
20
3.679
0
VERTEX
8
1
10
5.015
20
3.696
0
VERTEX
8
1
10
5.008
20
3.721
0
VERTEX
8
1
10
5.025
20
3.751
0
VERTEX
8
1
10
5.062
20
3.774
  0
SEQEND
0
POLYLINE
8
1
6
CONTINUOUS
66
1
70
1
0
VERTEX
8
1
10
4.759
20
3.936
0
VERTEX
8
1
10
4.735
20
3.890
0
VERTEX
8
1
10
4.676
20
3.802
0
VERTEX
8
1
10
4.604
20
3.710
0
VERTEX
8
1
10
4.573
20
3.671
0
VERTEX
8
1
10
4.559
20
3.654
0
VERTEX
8
1
10
4.385
20
3.436
0
VERTEX
8
1
10
4.134
20
3.079
0
VERTEX
8
1
10
4.085
20
3.002
0
VERTEX
8
1
10
3.998
20
2.880
0
VERTEX
8
1
10
3.959
20
2.845
0
VERTEX
8
1
10
3.929
20
2.833
0
VERTEX
8
1
10
3.915
20
2.840
0
VERTEX
8
1
10
3.914
20
2.864
0
VERTEX
8
1
10
3.928
20
2.903
0
VERTEX
8
1
10
3.955
20
2.952
0
VERTEX
8
1
10
3.997
20
3.018
0
VERTEX
8
1
10
4.058
20
3.101
0
VERTEX
8
1
10
4.328
20
3.458
0
VERTEX
8
1
10
4.578
20
3.766
0
VERTEX
8
1
10
4.681
20
3.911
0
VERTEX
8
1
10
4.722
20
3.954
0
VERTEX
8
1
10
4.754
20
3.967
  0
SEQEND
0
POLYLINE
8
1
6
CONTINUOUS
66
1
70
1
0
VERTEX
8
1
10
6.851
20
3.988
0
VERTEX
8
1
10
7.238
20
3.985
0
VERTEX
8
1
10
7.692
20
3.970
0
VERTEX
8
1
10
7.826
20
3.968
0
VERTEX
8
1
10
7.955
20
3.963
0
VERTEX
8
1
10
8.076
20
3.958
0
VERTEX
8
1
10
8.197
20
3.952
0
VERTEX
8
1
10
8.251
20
3.939
0
VERTEX
8
1
10
8.283
20
3.929
0
VERTEX
8
1
10
8.414
20
3.931
0
VERTEX
8
1
10
8.481
20
3.920
0
VERTEX
8
1
10
8.569
20
3.901
0
VERTEX
8
1
10
8.655
20
3.893
0
VERTEX
8
1
10
8.716
20
3.864
0
VERTEX
8
1
10
8.750
20
3.835
0
VERTEX
8
1
10
8.754
20
3.819
0
VERTEX
8
1
10
8.735
20
3.814
0
VERTEX
8
1
10
8.410
20
3.822
0
VERTEX
8
1
10
8.177
20
3.818
0
VERTEX
8
1
10
8.065
20
3.818
0
VERTEX
8
1
10
7.782
20
3.829
0
VERTEX
8
1
10
7.456
20
3.835
0
VERTEX
8
1
10
7.074
20
3.829
0
VERTEX
8
1
10
6.559
20
3.831
0
VERTEX
8
1
10
6.344
20
3.814
0
VERTEX
8
1
10
6.298
20
3.815
0
VERTEX
8
1
10
6.231
20
3.828
0
VERTEX
8
1
10
6.173
20
3.862
0
VERTEX
8
1
10
6.119
20
3.919
0
VERTEX
8
1
10
6.105
20
3.937
0
VERTEX
8
1
10
6.098
20
3.960
0
VERTEX
8
1
10
6.112
20
3.975
0
VERTEX
8
1
10
6.171
20
3.984
0
VERTEX
8
1
10
6.277
20
3.981
0
VERTEX
8
1
10
6.592
20
3.992
  0
SEQEND
0
POLYLINE
8
1
6
CONTINUOUS
66
1
70
1
0
VERTEX
8
1
10
5.360
20
4.000
0
VERTEX
8
1
10
5.413
20
3.997
0
VERTEX
8
1
10
5.470
20
4.000
0
VERTEX
8
1
10
5.520
20
4.005
0
VERTEX
8
1
10
5.555
20
3.995
0
VERTEX
8
1
10
5.584
20
3.965
0
VERTEX
8
1
10
5.599
20
3.945
0
VERTEX
8
1
10
5.621
20
3.911
0
VERTEX
8
1
10
5.621
20
3.893
0
VERTEX
8
1
10
5.600
20
3.884
0
VERTEX
8
1
10
5.557
20
3.882
0
VERTEX
8
1
10
5.396
20
3.883
0
VERTEX
8
1
10
5.271
20
3.898
0
VERTEX
8
1
10
5.214
20
3.912
0
VERTEX
8
1
10
5.191
20
3.932
0
VERTEX
8
1
10
5.190
20
3.960
0
VERTEX
8
1
10
5.197
20
3.978
0
VERTEX
8
1
10
5.219
20
3.998
0
VERTEX
8
1
10
5.280
20
4.003
  0
SEQEND
0
POLYLINE
8
1
6
CONTINUOUS
66
1
70
1
0
VERTEX
8
1
10
5.426
20
4.185
0
VERTEX
8
1
10
5.450
20
4.156
0
VERTEX
8
1
10
5.467
20
4.124
0
VERTEX
8
1
10
5.463
20
4.106
0
VERTEX
8
1
10
5.415
20
4.117
0
VERTEX
8
1
10
5.393
20
4.131
0
VERTEX
8
1
10
5.378
20
4.154
0
VERTEX
8
1
10
5.386
20
4.175
0
VERTEX
8
1
10
5.418
20
4.187
  0
SEQEND
0
POLYLINE
8
1
6
CONTINUOUS
66
1
70
1
0
VERTEX
8
1
10
6.627
20
4.254
0
VERTEX
8
1
10
6.679
20
4.248
0
VERTEX
8
1
10
6.913
20
4.246
0
VERTEX
8
1
10
6.980
20
4.249
0
VERTEX
8
1
10
7.065
20
4.254
0
VERTEX
8
1
10
7.233
20
4.250
0
VERTEX
8
1
10
7.331
20
4.248
0
VERTEX
8
1
10
7.444
20
4.251
0
VERTEX
8
1
10
7.522
20
4.238
0
VERTEX
8
1
10
7.638
20
4.211
0
VERTEX
8
1
10
7.782
20
4.201
0
VERTEX
8
1
10
7.855
20
4.186
0
VERTEX
8
1
10
7.872
20
4.180
0
VERTEX
8
1
10
7.949
20
4.148
0
VERTEX
8
1
10
8.008
20
4.120
0
VERTEX
8
1
10
8.027
20
4.103
0
VERTEX
8
1
10
8.021
20
4.089
0
VERTEX
8
1
10
7.981
20
4.075
0
VERTEX
8
1
10
7.943
20
4.069
0
VERTEX
8
1
10
7.876
20
4.069
0
VERTEX
8
1
10
7.637
20
4.080
0
VERTEX
8
1
10
7.505
20
4.087
0
VERTEX
8
1
10
7.049
20
4.087
0
VERTEX
8
1
10
6.741
20
4.097
0
VERTEX
8
1
10
6.621
20
4.095
0
VERTEX
8
1
10
6.569
20
4.097
0
VERTEX
8
1
10
6.414
20
4.088
0
VERTEX
8
1
10
6.301
20
4.081
0
VERTEX
8
1
10
6.242
20
4.084
0
VERTEX
8
1
10
6.105
20
4.088
0
VERTEX
8
1
10
6.047
20
4.104
0
VERTEX
8
1
10
5.994
20
4.119
0
VERTEX
8
1
10
5.943
20
4.137
0
VERTEX
8
1
10
5.937
20
4.143
0
VERTEX
8
1
10
5.889
20
4.200
0
VERTEX
8
1
10
5.874
20
4.220
0
VERTEX
8
1
10
5.879
20
4.242
0
VERTEX
8
1
10
5.913
20
4.251
0
VERTEX
8
1
10
6.013
20
4.252
0
VERTEX
8
1
10
6.067
20
4.247
0
VERTEX
8
1
10
6.086
20
4.245
0
VERTEX
8
1
10
6.123
20
4.241
0
VERTEX
8
1
10
6.360
20
4.246
0
VERTEX
8
1
10
6.463
20
4.245
0
VERTEX
8
1
10
6.595
20
4.254
  0
SEQEND
0
POLYLINE
8
1
6
CONTINUOUS
66
1
70
1
0
VERTEX
8
1
10
5.311
20
4.368
0
VERTEX
8
1
10
5.342
20
4.341
0
VERTEX
8
1
10
5.347
20
4.315
0
VERTEX
8
1
10
5.297
20
4.243
0
VERTEX
8
1
10
5.246
20
4.187
0
VERTEX
8
1
10
5.216
20
4.131
0
VERTEX
8
1
10
5.195
20
4.095
0
VERTEX
8
1
10
5.134
20
4.051
0
VERTEX
8
1
10
5.089
20
4.013
0
VERTEX
8
1
10
5.053
20
3.961
0
VERTEX
8
1
10
5.031
20
3.898
0
VERTEX
8
1
10
5.016
20
3.858
0
VERTEX
8
1
10
4.991
20
3.837
0
VERTEX
8
1
10
4.944
20
3.795
0
VERTEX
8
1
10
4.895
20
3.731
0
VERTEX
8
1
10
4.872
20
3.666
0
VERTEX
8
1
10
4.867
20
3.651
0
VERTEX
8
1
10
4.835
20
3.629
0
VERTEX
8
1
10
4.790
20
3.600
0
VERTEX
8
1
10
4.735
20
3.545
0
VERTEX
8
1
10
4.705
20
3.500
0
VERTEX
8
1
10
4.687
20
3.450
0
VERTEX
8
1
10
4.668
20
3.403
0
VERTEX
8
1
10
4.626
20
3.379
0
VERTEX
8
1
10
4.575
20
3.350
0
VERTEX
8
1
10
4.536
20
3.307
0
VERTEX
8
1
10
4.509
20
3.251
0
VERTEX
8
1
10
4.491
20
3.176
0
VERTEX
8
1
10
4.481
20
3.154
0
VERTEX
8
1
10
4.430
20
3.130
0
VERTEX
8
1
10
4.321
20
3.051
0
VERTEX
8
1
10
4.244
20
2.955
0
VERTEX
8
1
10
4.175
20
2.830
0
VERTEX
8
1
10
4.166
20
2.813
0
VERTEX
8
1
10
4.122
20
2.753
0
VERTEX
8
1
10
4.076
20
2.714
0
VERTEX
8
1
10
4.039
20
2.706
0
VERTEX
8
1
10
4.036
20
2.719
0
VERTEX
8
1
10
4.077
20
2.773
0
VERTEX
8
1
10
4.091
20
2.788
0
VERTEX
8
1
10
4.188
20
2.923
0
VERTEX
8
1
10
4.286
20
3.057
0
VERTEX
8
1
10
4.316
20
3.094
0
VERTEX
8
1
10
4.399
20
3.212
0
VERTEX
8
1
10
4.446
20
3.278
0
VERTEX
8
1
10
4.680
20
3.580
0
VERTEX
8
1
10
5.024
20
4.038
0
VERTEX
8
1
10
5.076
20
4.104
0
VERTEX
8
1
10
5.160
20
4.211
0
VERTEX
8
1
10
5.227
20
4.294
0
VERTEX
8
1
10
5.272
20
4.354
0
VERTEX
8
1
10
5.299
20
4.370
  0
SEQEND
0
POLYLINE
8
1
6
CONTINUOUS
66
1
70
1
0
VERTEX
8
1
10
5.532
20
4.472
0
VERTEX
8
1
10
5.566
20
4.437
0
VERTEX
8
1
10
5.591
20
4.400
0
VERTEX
8
1
10
5.626
20
4.357
0
VERTEX
8
1
10
5.758
20
4.194
0
VERTEX
8
1
10
5.797
20
4.146
0
VERTEX
8
1
10
5.914
20
4.011
0
VERTEX
8
1
10
5.956
20
3.962
0
VERTEX
8
1
10
5.977
20
3.938
0
VERTEX
8
1
10
6.073
20
3.810
0
VERTEX
8
1
10
6.148
20
3.689
0
VERTEX
8
1
10
6.206
20
3.602
0
VERTEX
8
1
10
6.261
20
3.529
0
VERTEX
8
1
10
6.332
20
3.447
0
VERTEX
8
1
10
6.396
20
3.373
0
VERTEX
8
1
10
6.521
20
3.211
0
VERTEX
8
1
10
6.606
20
3.083
0
VERTEX
8
1
10
6.642
20
3.023
0
VERTEX
8
1
10
6.703
20
2.938
0
VERTEX
8
1
10
6.726
20
2.912
0
VERTEX
8
1
10
6.756
20
2.872
0
VERTEX
8
1
10
6.780
20
2.839
0
VERTEX
8
1
10
6.994
20
2.536
0
VERTEX
8
1
10
7.006
20
2.513
0
VERTEX
8
1
10
7.013
20
2.477
0
VERTEX
8
1
10
7.004
20
2.459
0
VERTEX
8
1
10
6.987
20
2.464
0
VERTEX
8
1
10
6.928
20
2.534
0
VERTEX
8
1
10
6.881
20
2.617
0
VERTEX
8
1
10
6.847
20
2.655
0
VERTEX
8
1
10
6.807
20
2.692
0
VERTEX
8
1
10
6.693
20
2.838
0
VERTEX
8
1
10
6.658
20
2.888
0
VERTEX
8
1
10
6.618
20
2.933
0
VERTEX
8
1
10
6.595
20
2.968
0
VERTEX
8
1
10
6.553
20
3.033
0
VERTEX
8
1
10
6.429
20
3.206
0
VERTEX
8
1
10
6.392
20
3.260
0
VERTEX
8
1
10
6.229
20
3.445
0
VERTEX
8
1
10
6.149
20
3.544
0
VERTEX
8
1
10
6.081
20
3.648
0
VERTEX
8
1
10
6.031
20
3.728
0
VERTEX
8
1
10
5.910
20
3.886
0
VERTEX
8
1
10
5.720
20
4.095
0
VERTEX
8
1
10
5.624
20
4.244
0
VERTEX
8
1
10
5.596
20
4.278
0
VERTEX
8
1
10
5.519
20
4.378
0
VERTEX
8
1
10
5.492
20
4.429
0
VERTEX
8
1
10
5.490
20
4.459
0
VERTEX
8
1
10
5.508
20
4.475
  0
SEQEND
0
POLYLINE
8
1
6
CONTINUOUS
66
1
70
1
0
VERTEX
8
1
10
6.407
20
4.645
0
VERTEX
8
1
10
6.424
20
4.617
0
VERTEX
8
1
10
6.436
20
4.558
0
VERTEX
8
1
10
6.426
20
4.518
0
VERTEX
8
1
10
6.401
20
4.497
0
VERTEX
8
1
10
6.362
20
4.492
0
VERTEX
8
1
10
6.333
20
4.494
0
VERTEX
8
1
10
6.277
20
4.502
0
VERTEX
8
1
10
6.232
20
4.503
0
VERTEX
8
1
10
6.178
20
4.499
0
VERTEX
8
1
10
6.142
20
4.501
0
VERTEX
8
1
10
6.123
20
4.513
0
VERTEX
8
1
10
6.126
20
4.525
0
VERTEX
8
1
10
6.152
20
4.531
0
VERTEX
8
1
10
6.355
20
4.528
0
VERTEX
8
1
10
6.391
20
4.550
0
VERTEX
8
1
10
6.388
20
4.630
0
VERTEX
8
1
10
6.399
20
4.648
  0
SEQEND
0
POLYLINE
8
1
6
CONTINUOUS
66
1
70
1
0
VERTEX
8
1
10
5.883
20
5.479
0
VERTEX
8
1
10
5.896
20
5.449
0
VERTEX
8
1
10
5.897
20
5.348
0
VERTEX
8
1
10
5.896
20
5.311
0
VERTEX
8
1
10
5.883
20
4.885
0
VERTEX
8
1
10
5.893
20
4.735
0
VERTEX
8
1
10
5.900
20
4.656
0
VERTEX
8
1
10
5.895
20
4.579
0
VERTEX
8
1
10
5.882
20
4.539
0
VERTEX
8
1
10
5.866
20
4.529
0
VERTEX
8
1
10
5.845
20
4.541
0
VERTEX
8
1
10
5.821
20
4.575
0
VERTEX
8
1
10
5.779
20
4.657
0
VERTEX
8
1
10
5.763
20
4.727
0
VERTEX
8
1
10
5.765
20
4.795
0
VERTEX
8
1
10
5.769
20
4.844
0
VERTEX
8
1
10
5.774
20
5.256
0
VERTEX
8
1
10
5.781
20
5.446
0
VERTEX
8
1
10
5.796
20
5.479
0
VERTEX
8
1
10
5.862
20
5.486
  0
SEQEND
0
POLYLINE
8
1
6
CONTINUOUS
66
1
70
1
0
VERTEX
8
1
10
6.354
20
5.653
0
VERTEX
8
1
10
6.386
20
5.637
0
VERTEX
8
1
10
6.408
20
5.597
0
VERTEX
8
1
10
6.415
20
5.549
0
VERTEX
8
1
10
6.417
20
5.331
0
VERTEX
8
1
10
6.416
20
5.274
0
VERTEX
8
1
10
6.416
20
5.259
0
VERTEX
8
1
10
6.417
20
5.218
0
VERTEX
8
1
10
6.422
20
5.018
0
VERTEX
8
1
10
6.425
20
4.962
0
VERTEX
8
1
10
6.427
20
4.937
0
VERTEX
8
1
10
6.434
20
4.833
0
VERTEX
8
1
10
6.438
20
4.783
0
VERTEX
8
1
10
6.450
20
4.764
0
VERTEX
8
1
10
6.503
20
4.755
0
VERTEX
8
1
10
6.627
20
4.744
0
VERTEX
8
1
10
6.701
20
4.739
0
VERTEX
8
1
10
6.735
20
4.737
0
VERTEX
8
1
10
6.779
20
4.730
0
VERTEX
8
1
10
6.831
20
4.730
0
VERTEX
8
1
10
6.900
20
4.737
0
VERTEX
8
1
10
7.058
20
4.721
0
VERTEX
8
1
10
7.149
20
4.709
0
VERTEX
8
1
10
7.306
20
4.706
0
VERTEX
8
1
10
7.472
20
4.696
0
VERTEX
8
1
10
7.642
20
4.688
0
VERTEX
8
1
10
8.194
20
4.641
0
VERTEX
8
1
10
8.384
20
4.622
0
VERTEX
8
1
10
8.513
20
4.616
0
VERTEX
8
1
10
8.591
20
4.612
0
VERTEX
8
1
10
8.669
20
4.603
0
VERTEX
8
1
10
8.846
20
4.587
0
VERTEX
8
1
10
8.950
20
4.573
0
VERTEX
8
1
10
8.979
20
4.568
0
VERTEX
8
1
10
9.030
20
4.552
0
VERTEX
8
1
10
9.065
20
4.523
0
VERTEX
8
1
10
9.229
20
4.385
0
VERTEX
8
1
10
9.291
20
4.329
0
VERTEX
8
1
10
9.359
20
4.259
0
VERTEX
8
1
10
9.509
20
4.077
0
VERTEX
8
1
10
9.582
20
4.000
0
VERTEX
8
1
10
9.647
20
3.935
0
VERTEX
8
1
10
9.813
20
3.742
0
VERTEX
8
1
10
9.875
20
3.657
0
VERTEX
8
1
10
10.214
20
3.262
0
VERTEX
8
1
10
10.434
20
2.947
0
VERTEX
8
1
10
10.502
20
2.856
0
VERTEX
8
1
10
10.524
20
2.816
0
VERTEX
8
1
10
10.537
20
2.772
0
VERTEX
8
1
10
10.530
20
2.732
0
VERTEX
8
1
10
10.484
20
2.654
0
VERTEX
8
1
10
10.470
20
2.574
0
VERTEX
8
1
10
10.454
20
2.539
0
VERTEX
8
1
10
10.421
20
2.518
0
VERTEX
8
1
10
10.399
20
2.512
0
VERTEX
8
1
10
10.177
20
2.495
0
VERTEX
8
1
10
10.154
20
2.481
0
VERTEX
8
1
10
10.148
20
2.396
0
VERTEX
8
1
10
10.127
20
2.353
0
VERTEX
8
1
10
10.116
20
2.321
0
VERTEX
8
1
10
10.125
20
2.287
0
VERTEX
8
1
10
10.137
20
2.240
0
VERTEX
8
1
10
10.126
20
2.146
0
VERTEX
8
1
10
10.137
20
2.103
0
VERTEX
8
1
10
10.147
20
2.067
0
VERTEX
8
1
10
10.145
20
2.003
0
VERTEX
8
1
10
10.123
20
1.935
0
VERTEX
8
1
10
10.112
20
1.902
0
VERTEX
8
1
10
10.121
20
1.880
0
VERTEX
8
1
10
10.141
20
1.833
0
VERTEX
8
1
10
10.146
20
1.779
0
VERTEX
8
1
10
10.132
20
1.723
0
VERTEX
8
1
10
10.121
20
1.681
0
VERTEX
8
1
10
10.137
20
1.631
0
VERTEX
8
1
10
10.146
20
1.587
0
VERTEX
8
1
10
10.139
20
1.533
0
VERTEX
8
1
10
10.113
20
1.486
0
VERTEX
8
1
10
10.108
20
1.456
0
VERTEX
8
1
10
10.124
20
1.419
0
VERTEX
8
1
10
10.136
20
1.394
0
VERTEX
8
1
10
10.142
20
1.352
0
VERTEX
8
1
10
10.127
20
1.303
0
VERTEX
8
1
10
10.120
20
1.270
0
VERTEX
8
1
10
10.136
20
1.237
0
VERTEX
8
1
10
10.156
20
1.180
0
VERTEX
8
1
10
10.156
20
1.125
0
VERTEX
8
1
10
10.133
20
1.071
0
VERTEX
8
1
10
10.111
20
1.023
0
VERTEX
8
1
10
10.113
20
0.985
0
VERTEX
8
1
10
10.122
20
0.937
0
VERTEX
8
1
10
10.114
20
0.893
0
VERTEX
8
1
10
10.109
20
0.864
0
VERTEX
8
1
10
10.127
20
0.772
0
VERTEX
8
1
10
10.116
20
0.706
0
VERTEX
8
1
10
10.081
20
0.676
0
VERTEX
8
1
10
9.984
20
0.645
0
VERTEX
8
1
10
9.933
20
0.629
0
VERTEX
8
1
10
9.834
20
0.602
0
VERTEX
8
1
10
9.530
20
0.538
0
VERTEX
8
1
10
9.346
20
0.508
0
VERTEX
8
1
10
9.159
20
0.475
0
VERTEX
8
1
10
9.072
20
0.452
0
VERTEX
8
1
10
9.038
20
0.441
0
VERTEX
8
1
10
8.883
20
0.407
0
VERTEX
8
1
10
8.857
20
0.399
0
VERTEX
8
1
10
8.789
20
0.374
0
VERTEX
8
1
10
8.750
20
0.364
0
VERTEX
8
1
10
8.692
20
0.351
0
VERTEX
8
1
10
8.624
20
0.336
0
VERTEX
8
1
10
8.240
20
0.220
0
VERTEX
8
1
10
8.217
20
0.212
0
VERTEX
8
1
10
8.183
20
0.196
0
VERTEX
8
1
10
8.152
20
0.186
0
VERTEX
8
1
10
8.111
20
0.179
0
VERTEX
8
1
10
8.049
20
0.170
0
VERTEX
8
1
10
7.930
20
0.149
0
VERTEX
8
1
10
7.766
20
0.103
0
VERTEX
8
1
10
7.639
20
0.066
0
VERTEX
8
1
10
7.185
20
-0.037
0
VERTEX
8
1
10
7.152
20
-0.046
0
VERTEX
8
1
10
6.904
20
-0.148
0
VERTEX
8
1
10
6.785
20
-0.171
0
VERTEX
8
1
10
6.670
20
-0.170
0
VERTEX
8
1
10
6.466
20
-0.134
0
VERTEX
8
1
10
6.314
20
-0.113
0
VERTEX
8
1
10
6.186
20
-0.098
0
VERTEX
8
1
10
6.132
20
-0.091
0
VERTEX
8
1
10
6.067
20
-0.091
0
VERTEX
8
1
10
6.029
20
-0.087
0
VERTEX
8
1
10
5.976
20
-0.079
0
VERTEX
8
1
10
5.936
20
-0.072
0
VERTEX
8
1
10
5.689
20
-0.058
0
VERTEX
8
1
10
5.645
20
-0.065
0
VERTEX
8
1
10
5.588
20
-0.105
0
VERTEX
8
1
10
5.541
20
-0.131
0
VERTEX
8
1
10
5.493
20
-0.138
0
VERTEX
8
1
10
5.429
20
-0.130
0
VERTEX
8
1
10
5.265
20
-0.097
0
VERTEX
8
1
10
5.108
20
-0.072
0
VERTEX
8
1
10
4.980
20
-0.064
0
VERTEX
8
1
10
4.894
20
-0.056
0
VERTEX
8
1
10
4.868
20
-0.041
0
VERTEX
8
1
10
4.867
20
-0.018
0
VERTEX
8
1
10
4.886
20
0.006
0
VERTEX
8
1
10
4.948
20
0.041
0
VERTEX
8
1
10
5.019
20
0.069
0
VERTEX
8
1
10
5.042
20
0.083
0
VERTEX
8
1
10
5.038
20
0.093
0
VERTEX
8
1
10
5.011
20
0.099
0
VERTEX
8
1
10
4.950
20
0.103
0
VERTEX
8
1
10
4.802
20
0.119
0
VERTEX
8
1
10
4.407
20
0.168
0
VERTEX
8
1
10
4.303
20
0.175
0
VERTEX
8
1
10
4.249
20
0.186
0
VERTEX
8
1
10
4.217
20
0.207
0
VERTEX
8
1
10
4.183
20
0.283
0
VERTEX
8
1
10
4.175
20
0.308
0
VERTEX
8
1
10
4.183
20
0.437
0
VERTEX
8
1
10
4.165
20
0.496
0
VERTEX
8
1
10
4.147
20
0.550
0
VERTEX
8
1
10
4.151
20
0.607
0
VERTEX
8
1
10
4.175
20
0.670
0
VERTEX
8
1
10
4.181
20
0.682
0
VERTEX
8
1
10
4.177
20
0.714
0
VERTEX
8
1
10
4.156
20
0.765
0
VERTEX
8
1
10
4.149
20
0.845
0
VERTEX
8
1
10
4.167
20
0.891
0
VERTEX
8
1
10
4.174
20
0.911
0
VERTEX
8
1
10
4.155
20
0.967
0
VERTEX
8
1
10
4.146
20
1.043
0
VERTEX
8
1
10
4.161
20
1.094
0
VERTEX
8
1
10
4.189
20
1.151
0
VERTEX
8
1
10
4.187
20
1.183
0
VERTEX
8
1
10
4.164
20
1.259
0
VERTEX
8
1
10
4.173
20
1.327
0
VERTEX
8
1
10
4.181
20
1.388
0
VERTEX
8
1
10
4.172
20
1.437
0
VERTEX
8
1
10
4.161
20
1.493
0
VERTEX
8
1
10
4.167
20
1.543
0
VERTEX
8
1
10
4.186
20
1.603
0
VERTEX
8
1
10
4.191
20
1.636
0
VERTEX
8
1
10
4.171
20
1.689
0
VERTEX
8
1
10
4.158
20
1.737
0
VERTEX
8
1
10
4.163
20
1.787
0
VERTEX
8
1
10
4.165
20
1.831
0
VERTEX
8
1
10
4.136
20
1.891
0
VERTEX
8
1
10
4.118
20
1.939
0
VERTEX
8
1
10
4.112
20
1.999
0
VERTEX
8
1
10
4.119
20
2.044
0
VERTEX
8
1
10
4.143
20
2.077
0
VERTEX
8
1
10
4.167
20
2.104
0
VERTEX
8
1
10
4.162
20
2.128
0
VERTEX
8
1
10
4.144
20
2.172
0
VERTEX
8
1
10
4.133
20
2.249
0
VERTEX
8
1
10
4.145
20
2.316
0
VERTEX
8
1
10
4.174
20
2.363
0
VERTEX
8
1
10
4.186
20
2.392
0
VERTEX
8
1
10
4.170
20
2.433
0
VERTEX
8
1
10
4.162
20
2.480
0
VERTEX
8
1
10
4.164
20
2.516
0
VERTEX
8
1
10
4.168
20
2.554
0
VERTEX
8
1
10
4.163
20
2.573
0
VERTEX
8
1
10
4.141
20
2.579
0
VERTEX
8
1
10
4.102
20
2.581
0
VERTEX
8
1
10
4.038
20
2.582
0
VERTEX
8
1
10
3.935
20
2.593
0
VERTEX
8
1
10
3.891
20
2.610
0
VERTEX
8
1
10
3.861
20
2.643
0
VERTEX
8
1
10
3.834
20
2.703
0
VERTEX
8
1
10
3.803
20
2.774
0
VERTEX
8
1
10
3.772
20
2.839
0
VERTEX
8
1
10
3.766
20
2.882
0
VERTEX
8
1
10
3.791
20
2.947
0
VERTEX
8
1
10
3.888
20
3.071
0
VERTEX
8
1
10
4.923
20
4.349
0
VERTEX
8
1
10
5.167
20
4.642
0
VERTEX
8
1
10
5.228
20
4.725
0
VERTEX
8
1
10
5.295
20
4.803
0
VERTEX
8
1
10
5.307
20
4.810
0
VERTEX
8
1
10
5.361
20
4.812
0
VERTEX
8
1
10
5.410
20
4.806
0
VERTEX
8
1
10
5.556
20
4.800
0
VERTEX
8
1
10
5.620
20
4.795
0
VERTEX
8
1
10
5.647
20
4.802
0
VERTEX
8
1
10
5.657
20
4.825
0
VERTEX
8
1
10
5.657
20
4.868
0
VERTEX
8
1
10
5.657
20
4.910
0
VERTEX
8
1
10
5.669
20
5.085
0
VERTEX
8
1
10
5.671
20
5.146
0
VERTEX
8
1
10
5.674
20
5.488
0
VERTEX
8
1
10
5.687
20
5.544
0
VERTEX
8
1
10
5.714
20
5.578
0
VERTEX
8
1
10
5.762
20
5.598
0
VERTEX
8
1
10
5.899
20
5.603
0
VERTEX
8
1
10
6.056
20
5.622
0
VERTEX
8
1
10
6.180
20
5.630
0
VERTEX
8
1
10
6.204
20
5.630
0
VERTEX
8
1
10
6.265
20
5.639
0
VERTEX
8
1
10
6.335
20
5.653
  0
SEQEND
  0
ENDSEC
  0
EOF
