  0
SECTION
  2
HEADER
  9
$EXTMIN
 10
20.946766
 20
10.924810
  9
$EXTMAX
 10
28.353621
 20
15.733288
  0
ENDSEC
  0
SECTION
  2
TABLES
  0
ENDSEC
  0
SECTION
  2
ENTITIES
  0
POLYLINE
  8
2
 66
1
 70
1
  0
VERTEX
  8
2
 10
24.650194
 20
15.731319
 42
0.066835
  0
VERTEX
  8
2
 10
23.209432
 20
15.542534
 42
0.076614
  0
VERTEX
  8
2
 10
22.032879
 20
15.027703
 42
0.104261
  0
VERTEX
  8
2
 10
21.239619
 20
14.264113
 42
0.147067
  0
VERTEX
  8
2
 10
20.948736
 20
13.329049
 42
0.147067
  0
VERTEX
  8
2
 10
21.239619
 20
12.393985
 42
0.104261
  0
VERTEX
  8
2
 10
22.032879
 20
11.630394
 42
0.076614
  0
VERTEX
  8
2
 10
23.209432
 20
11.115563
 42
0.066835
  0
VERTEX
  8
2
 10
24.650194
 20
10.926778
 42
0.066835
  0
VERTEX
  8
2
 10
26.090956
 20
11.115563
 42
0.076614
  0
VERTEX
  8
2
 10
27.267510
 20
11.630394
 42
0.104261
  0
VERTEX
  8
2
 10
28.060770
 20
12.393985
 42
0.147067
  0
VERTEX
  8
2
 10
28.351653
 20
13.329049
 42
0.147067
  0
VERTEX
  8
2
 10
28.060770
 20
14.264113
 42
0.104261
  0
VERTEX
  8
2
 10
27.267510
 20
15.027703
 42
0.076614
  0
VERTEX
  8
2
 10
26.090956
 20
15.542534
  0
VERTEX
  8
2
 10
26.090956
 20
15.542534
 42
0.066835
  0
SEQEND
  0
POLYLINE
  8
2
 66
1
 70
1
  0
VERTEX
  8
2
 10
24.650194
 20
11.022853
 42
-0.066835
  0
VERTEX
  8
2
 10
23.267053
 20
11.204088
 42
-0.076614
  0
VERTEX
  8
2
 10
22.137554
 20
11.698329
 42
-0.104261
  0
VERTEX
  8
2
 10
21.376018
 20
12.431381
 42
-0.147068
  0
VERTEX
  8
2
 10
21.096768
 20
13.329049
 42
-0.147068
  0
VERTEX
  8
2
 10
21.376018
 20
14.226716
 42
-0.104261
  0
VERTEX
  8
2
 10
22.137554
 20
14.959768
 42
-0.076614
  0
VERTEX
  8
2
 10
23.267053
 20
15.454010
 42
-0.066835
  0
VERTEX
  8
2
 10
24.650194
 20
15.635244
 42
-0.066835
  0
VERTEX
  8
2
 10
26.033335
 20
15.454010
 42
-0.076614
  0
VERTEX
  8
2
 10
27.162834
 20
14.959768
 42
-0.104261
  0
VERTEX
  8
2
 10
27.924369
 20
14.226716
 42
-0.147068
  0
VERTEX
  8
2
 10
28.203619
 20
13.329049
 42
-0.147068
  0
VERTEX
  8
2
 10
27.924369
 20
12.431381
 42
-0.104261
  0
VERTEX
  8
2
 10
27.162834
 20
11.698329
 42
-0.076614
  0
VERTEX
  8
2
 10
26.033335
 20
11.204088
  0
VERTEX
  8
2
 10
26.033335
 20
11.204088
 42
-0.066835
  0
SEQEND
  0
POLYLINE
  8
2
 66
1
 70
1
  0
VERTEX
  8
2
 10
27.250187
 20
12.878383
  0
VERTEX
  8
2
 10
22.661664
 20
12.878383
 42
0.087539
  0
VERTEX
  8
2
 10
23.304758
 20
13.633974
 42
-0.100071
  0
VERTEX
  8
2
 10
23.318634
 20
13.614544
 42
0.004664
  0
VERTEX
  8
2
 10
23.325354
 20
13.603714
 42
-0.514181
  0
VERTEX
  8
2
 10
23.329839
 20
13.606553
 42
0.005307
  0
VERTEX
  8
2
 10
23.323449
 20
13.625129
 42
-0.049960
  0
VERTEX
  8
2
 10
23.314172
 20
13.655526
 42
0.009565
  0
VERTEX
  8
2
 10
23.440115
 20
13.964249
 42
-0.015912
  0
VERTEX
  8
2
 10
23.503061
 20
13.926207
 42
-0.600496
  0
VERTEX
  8
2
 10
23.508235
 20
13.930782
  0
VERTEX
  8
2
 10
23.506586
 20
13.932874
 42
0.028252
  0
VERTEX
  8
2
 10
23.463753
 20
13.983089
 42
-0.961963
  0
VERTEX
  8
2
 10
23.465744
 20
13.990661
 42
0.046297
  0
VERTEX
  8
2
 10
23.474013
 20
13.987962
 42
-0.092823
  0
VERTEX
  8
2
 10
23.483457
 20
13.983912
 42
-0.439354
  0
VERTEX
  8
2
 10
23.486539
 20
13.989839
 42
0.020998
  0
VERTEX
  8
2
 10
23.478002
 20
13.999849
 42
-0.038555
  0
VERTEX
  8
2
 10
23.466533
 20
14.014212
 42
0.613589
  0
VERTEX
  8
2
 10
23.467279
 20
14.019982
  0
VERTEX
  8
2
 10
23.468621
 20
14.019504
 42
0.132812
  0
VERTEX
  8
2
 10
23.486209
 20
14.015347
 42
-0.003402
  0
VERTEX
  8
2
 10
23.488761
 20
14.015437
 42
0.994333
  0
VERTEX
  8
2
 10
23.487333
 20
14.020101
 42
0.031724
  0
VERTEX
  8
2
 10
23.465519
 20
14.034725
 42
-0.122850
  0
VERTEX
  8
2
 10
23.510503
 20
14.128415
 42
-0.158009
  0
VERTEX
  8
2
 10
23.507142
 20
14.069597
 42
-0.580079
  0
VERTEX
  8
2
 10
23.514385
 20
14.066426
 42
-0.331673
  0
VERTEX
  8
2
 10
23.540048
 20
14.096149
 42
-0.163993
  0
VERTEX
  8
2
 10
23.525875
 20
14.029274
 42
-0.439078
  0
VERTEX
  8
2
 10
23.534890
 20
14.026560
 42
0.007929
  0
VERTEX
  8
2
 10
23.560338
 20
14.063117
 42
-0.000884
  0
VERTEX
  8
2
 10
23.567174
 20
14.073139
 42
0.448195
  0
VERTEX
  8
2
 10
23.573951
 20
14.069242
 42
-0.010608
  0
VERTEX
  8
2
 10
23.549240
 20
14.006519
 42
0.082902
  0
VERTEX
  8
2
 10
23.474768
 20
13.745526
 42
-0.584271
  0
VERTEX
  8
2
 10
23.482010
 20
13.742354
 42
0.032982
  0
VERTEX
  8
2
 10
23.505783
 20
13.809787
 42
-0.047284
  0
VERTEX
  8
2
 10
23.533153
 20
13.883392
 42
0.599331
  0
VERTEX
  8
2
 10
23.540258
 20
13.881468
 42
-0.001942
  0
VERTEX
  8
2
 10
23.524496
 20
13.825802
 42
0.013318
  0
VERTEX
  8
2
 10
23.485675
 20
13.680325
 42
-0.480095
  0
VERTEX
  8
2
 10
23.493181
 20
13.676542
 42
0.027078
  0
VERTEX
  8
2
 10
23.513972
 20
13.739987
 42
-0.005922
  0
VERTEX
  8
2
 10
23.522721
 20
13.769490
 42
0.211398
  0
VERTEX
  8
2
 10
23.527590
 20
13.766289
 42
-0.000310
  0
VERTEX
  8
2
 10
23.525156
 20
13.756978
 42
0.034924
  0
VERTEX
  8
2
 10
23.496683
 20
13.622667
 42
-0.851454
  0
VERTEX
  8
2
 10
23.505014
 20
13.618699
 42
0.030120
  0
VERTEX
  8
2
 10
23.519423
 20
13.659335
 42
-0.040518
  0
VERTEX
  8
2
 10
23.534992
 20
13.701658
 42
0.584641
  0
VERTEX
  8
2
 10
23.541544
 20
13.700303
 42
-0.000888
  0
VERTEX
  8
2
 10
23.534699
 20
13.678614
 42
0.041903
  0
VERTEX
  8
2
 10
23.493318
 20
13.518040
 42
-0.468499
  0
VERTEX
  8
2
 10
23.500676
 20
13.517967
 42
0.001230
  0
VERTEX
  8
2
 10
23.504203
 20
13.529188
 42
-0.045594
  0
VERTEX
  8
2
 10
23.533396
 20
13.606010
 42
0.712827
  0
VERTEX
  8
2
 10
23.539731
 20
13.603669
 42
-0.016491
  0
VERTEX
  8
2
 10
23.518850
 20
13.526690
 42
0.031732
  0
VERTEX
  8
2
 10
23.492532
 20
13.421844
 42
-0.871660
  0
VERTEX
  8
2
 10
23.499674
 20
13.418160
 42
0.009402
  0
VERTEX
  8
2
 10
23.507982
 20
13.436975
 42
-0.027766
  0
VERTEX
  8
2
 10
23.524115
 20
13.471643
 42
0.018778
  0
VERTEX
  8
2
 10
23.526719
 20
13.476650
 42
-0.075085
  0
VERTEX
  8
2
 10
23.537524
 20
13.494393
 42
-0.467813
  0
VERTEX
  8
2
 10
23.539336
 20
13.470103
 42
0.036617
  0
VERTEX
  8
2
 10
23.543928
 20
13.346642
 42
-0.295103
  0
VERTEX
  8
2
 10
23.552367
 20
13.347519
 42
0.027041
  0
VERTEX
  8
2
 10
23.565747
 20
13.475162
 42
-0.190563
  0
VERTEX
  8
2
 10
23.571656
 20
13.490908
 42
-0.843598
  0
VERTEX
  8
2
 10
23.580329
 20
13.483729
 42
0.010357
  0
VERTEX
  8
2
 10
23.588049
 20
13.445332
 42
-0.012332
  0
VERTEX
  8
2
 10
23.597364
 20
13.398343
 42
-0.358962
  0
VERTEX
  8
2
 10
23.604356
 20
13.399267
 42
-0.000560
  0
VERTEX
  8
2
 10
23.605291
 20
13.427852
 42
0.042728
  0
VERTEX
  8
2
 10
23.599583
 20
13.672103
 42
0.358342
  0
VERTEX
  8
2
 10
23.604086
 20
13.674101
 42
-0.019518
  0
VERTEX
  8
2
 10
23.621035
 20
13.597368
 42
-0.318029
  0
VERTEX
  8
2
 10
23.627299
 20
13.598276
 42
0.011713
  0
VERTEX
  8
2
 10
23.620309
 20
13.714500
 42
-0.001812
  0
VERTEX
  8
2
 10
23.616975
 20
13.760100
 42
-0.179522
  0
VERTEX
  8
2
 10
23.619036
 20
13.771062
 42
-0.675021
  0
VERTEX
  8
2
 10
23.623557
 20
13.767042
 42
-0.042274
  0
VERTEX
  8
2
 10
23.641618
 20
13.658456
 42
-0.370670
  0
VERTEX
  8
2
 10
23.647649
 20
13.658235
 42
0.047896
  0
VERTEX
  8
2
 10
23.633411
 20
13.786824
 42
-0.014152
  0
VERTEX
  8
2
 10
23.621771
 20
13.862657
 42
-0.155916
  0
VERTEX
  8
2
 10
23.623426
 20
13.876464
 42
-0.848580
  0
VERTEX
  8
2
 10
23.628435
 20
13.873175
 42
-0.037107
  0
VERTEX
  8
2
 10
23.658869
 20
13.731067
 42
-0.352137
  0
VERTEX
  8
2
 10
23.664843
 20
13.732076
 42
0.045705
  0
VERTEX
  8
2
 10
23.642132
 20
13.890523
 42
-0.000431
  0
VERTEX
  8
2
 10
23.639039
 20
13.905629
 42
0.353795
  0
VERTEX
  8
2
 10
23.643879
 20
13.908943
 42
-0.028371
  0
VERTEX
  8
2
 10
23.679753
 20
13.800613
 42
-0.548598
  0
VERTEX
  8
2
 10
23.687626
 20
13.801539
 42
0.071668
  0
VERTEX
  8
2
 10
23.665574
 20
13.906076
 42
-0.020215
  0
VERTEX
  8
2
 10
23.653162
 20
13.949168
 42
0.751348
  0
VERTEX
  8
2
 10
23.660465
 20
13.955071
 42
-0.011996
  0
VERTEX
  8
2
 10
23.694586
 20
13.889422
 42
-0.978472
  0
VERTEX
  8
2
 10
23.705172
 20
13.890387
 42
0.005889
  0
VERTEX
  8
2
 10
23.706318
 20
13.921950
 42
-0.081467
  0
VERTEX
  8
2
 10
23.725753
 20
14.069218
 42
-0.050852
  0
VERTEX
  8
2
 10
23.733314
 20
14.082799
 42
-0.008792
  0
VERTEX
  8
2
 10
23.733901
 20
14.069432
 42
-0.026462
  0
VERTEX
  8
2
 10
23.729205
 20
13.968449
 42
0.003097
  0
VERTEX
  8
2
 10
23.726597
 20
13.934744
 42
-0.393371
  0
VERTEX
  8
2
 10
23.734226
 20
13.931997
 42
-0.028875
  0
VERTEX
  8
2
 10
23.756368
 20
14.000682
 42
0.860658
  0
VERTEX
  8
2
 10
23.763787
 20
13.999472
 42
-0.019539
  0
VERTEX
  8
2
 10
23.761477
 20
13.975185
 42
0.017252
  0
VERTEX
  8
2
 10
23.759235
 20
13.952351
 42
-0.647673
  0
VERTEX
  8
2
 10
23.767111
 20
13.949447
 42
0.000903
  0
VERTEX
  8
2
 10
23.770157
 20
13.960227
 42
-0.019652
  0
VERTEX
  8
2
 10
23.786478
 20
14.013087
 42
0.975575
  0
VERTEX
  8
2
 10
23.794331
 20
14.012490
 42
-0.013938
  0
VERTEX
  8
2
 10
23.798840
 20
13.928227
 42
0.030124
  0
VERTEX
  8
2
 10
23.807118
 20
13.818018
 42
0.326334
  0
VERTEX
  8
2
 10
23.813171
 20
13.800746
 42
0.271774
  0
VERTEX
  8
2
 10
23.818485
 20
13.812479
 42
0.011611
  0
VERTEX
  8
2
 10
23.819752
 20
13.865291
 42
-0.071363
  0
VERTEX
  8
2
 10
23.832365
 20
13.989581
 42
-0.695458
  0
VERTEX
  8
2
 10
23.842104
 20
13.990600
 42
-0.069247
  0
VERTEX
  8
2
 10
23.861968
 20
13.843463
 42
0.002274
  0
VERTEX
  8
2
 10
23.863258
 20
13.816071
 42
-0.314245
  0
VERTEX
  8
2
 10
23.870560
 20
13.815724
 42
0.014181
  0
VERTEX
  8
2
 10
23.872252
 20
13.928669
  0
VERTEX
  8
2
 10
23.872235
 20
13.933469
 42
0.645118
  0
VERTEX
  8
2
 10
23.879035
 20
13.934712
 42
-0.034677
  0
VERTEX
  8
2
 10
23.898332
 20
13.834744
 42
0.023015
  0
VERTEX
  8
2
 10
23.915528
 20
13.738887
 42
0.180100
  0
VERTEX
  8
2
 10
23.922444
 20
13.724805
 42
0.489666
  0
VERTEX
  8
2
 10
23.925310
 20
13.734507
 42
-0.011316
  0
VERTEX
  8
2
 10
23.920306
 20
13.817606
 42
0.004151
  0
VERTEX
  8
2
 10
23.917687
 20
13.869401
 42
0.431666
  0
VERTEX
  8
2
 10
23.924557
 20
13.869583
 42
-0.005120
  0
VERTEX
  8
2
 10
23.942593
 20
13.808433
 42
0.006887
  0
VERTEX
  8
2
 10
23.978881
 20
13.687054
 42
0.214095
  0
VERTEX
  8
2
 10
23.988498
 20
13.669366
 42
0.206061
  0
VERTEX
  8
2
 10
23.988104
 20
13.688744
 42
-0.044259
  0
VERTEX
  8
2
 10
23.962954
 20
13.854021
 42
0.633262
  0
VERTEX
  8
2
 10
23.970124
 20
13.855504
 42
-0.001126
  0
VERTEX
  8
2
 10
23.990375
 20
13.794962
 42
0.009893
  0
VERTEX
  8
2
 10
24.048969
 20
13.626211
 42
0.152327
  0
VERTEX
  8
2
 10
24.059076
 20
13.608344
 42
0.249260
  0
VERTEX
  8
2
 10
24.057514
 20
13.625079
 42
0.000686
  0
VERTEX
  8
2
 10
24.048205
 20
13.656487
 42
-0.023937
  0
VERTEX
  8
2
 10
23.998511
 20
13.845396
 42
0.442633
  0
VERTEX
  8
2
 10
24.004408
 20
13.846708
 42
-0.003409
  0
VERTEX
  8
2
 10
24.044605
 20
13.747950
 42
0.011025
  0
VERTEX
  8
2
 10
24.118792
 20
13.570761
 42
0.366477
  0
VERTEX
  8
2
 10
24.128095
 20
13.560104
 42
0.190298
  0
VERTEX
  8
2
 10
24.126762
 20
13.577886
 42
0.006958
  0
VERTEX
  8
2
 10
24.068551
 20
13.761291
 42
-0.000982
  0
VERTEX
  8
2
 10
24.044293
 20
13.835658
 42
0.097042
  0
VERTEX
  8
2
 10
23.972611
 20
13.971692
 42
-0.148414
  0
VERTEX
  8
2
 10
23.907208
 20
14.115764
 42
-0.621143
  0
VERTEX
  8
2
 10
23.914372
 20
14.119444
 42
-0.097247
  0
VERTEX
  8
2
 10
23.938014
 20
14.071413
 42
0.035620
  0
VERTEX
  8
2
 10
23.950139
 20
14.040793
 42
-0.603782
  0
VERTEX
  8
2
 10
23.957772
 20
14.043131
 42
0.006771
  0
VERTEX
  8
2
 10
23.949154
 20
14.072266
 42
-0.033731
  0
VERTEX
  8
2
 10
23.922151
 20
14.177696
 42
-0.964633
  0
VERTEX
  8
2
 10
23.929003
 20
14.178778
 42
-0.056935
  0
VERTEX
  8
2
 10
23.962091
 20
14.109573
 42
0.072464
  0
VERTEX
  8
2
 10
23.998674
 20
14.036710
 42
-0.878833
  0
VERTEX
  8
2
 10
24.007708
 20
14.043012
 42
0.006732
  0
VERTEX
  8
2
 10
23.996142
 20
14.075201
 42
-0.066185
  0
VERTEX
  8
2
 10
23.968957
 20
14.174249
 42
-0.666597
  0
VERTEX
  8
2
 10
23.978503
 20
14.176608
 42
-0.056527
  0
VERTEX
  8
2
 10
24.043560
 20
14.077377
 42
0.034150
  0
VERTEX
  8
2
 10
24.090679
 20
14.000537
 42
0.230107
  0
VERTEX
  8
2
 10
24.106111
 20
13.987865
 42
0.285748
  0
VERTEX
  8
2
 10
24.100485
 20
14.006732
 42
0.017431
  0
VERTEX
  8
2
 10
24.059724
 20
14.088277
 42
-0.028022
  0
VERTEX
  8
2
 10
24.008907
 20
14.193815
 42
-0.866026
  0
VERTEX
  8
2
 10
24.016703
 20
14.196207
 42
-0.051177
  0
VERTEX
  8
2
 10
24.182558
 20
13.972276
 42
-0.427646
  0
VERTEX
  8
2
 10
24.189229
 20
13.973306
 42
0.025039
  0
VERTEX
  8
2
 10
24.155395
 20
14.039098
 42
-0.064516
  0
VERTEX
  8
2
 10
24.103976
 20
14.153544
 42
-0.833679
  0
VERTEX
  8
2
 10
24.114021
 20
14.157311
 42
-0.058785
  0
VERTEX
  8
2
 10
24.227511
 20
13.994983
 42
0.011089
  0
VERTEX
  8
2
 10
24.271942
 20
13.921921
 42
-0.521317
  0
VERTEX
  8
2
 10
24.277040
 20
13.925781
 42
0.021060
  0
VERTEX
  8
2
 10
24.220241
 20
14.053204
 42
-0.025183
  0
VERTEX
  8
2
 10
24.178644
 20
14.146603
 42
0.973806
  0
VERTEX
  8
2
 10
24.186125
 20
14.151765
 42
-0.053814
  0
VERTEX
  8
2
 10
24.305669
 20
13.979190
 42
0.003110
  0
VERTEX
  8
2
 10
24.330944
 20
13.936829
 42
-0.292305
  0
VERTEX
  8
2
 10
24.337935
 20
13.939094
 42
0.008506
  0
VERTEX
  8
2
 10
24.300038
 20
14.014900
 42
-0.022687
  0
VERTEX
  8
2
 10
24.241890
 20
14.136833
 42
0.870106
  0
VERTEX
  8
2
 10
24.248789
 20
14.140928
 42
-0.045412
  0
VERTEX
  8
2
 10
24.396182
 20
13.951843
 42
0.004721
  0
VERTEX
  8
2
 10
24.434401
 20
13.896787
 42
-0.435503
  0
VERTEX
  8
2
 10
24.440899
 20
13.898883
 42
0.041923
  0
VERTEX
  8
2
 10
24.359018
 20
14.030218
 42
-0.005471
  0
VERTEX
  8
2
 10
24.326953
 20
14.076486
 42
-0.950335
  0
VERTEX
  8
2
 10
24.339361
 20
14.086868
 42
-0.100899
  0
VERTEX
  8
2
 10
24.487204
 20
13.927776
 42
-0.421032
  0
VERTEX
  8
2
 10
24.493379
 20
13.931946
 42
0.134095
  0
VERTEX
  8
2
 10
24.283271
 20
14.166087
 42
0.036068
  0
VERTEX
  8
2
 10
24.030342
 20
14.315238
 42
-0.019586
  0
VERTEX
  8
2
 10
23.959660
 20
14.353796
 42
0.868185
  0
VERTEX
  8
2
 10
23.957869
 20
14.362044
 42
-0.137176
  0
VERTEX
  8
2
 10
23.971279
 20
14.360569
 42
0.265599
  0
VERTEX
  8
2
 10
24.001814
 20
14.350093
 42
0.199682
  0
VERTEX
  8
2
 10
23.998888
 20
14.366001
 42
-0.027371
  0
VERTEX
  8
2
 10
23.997094
 20
14.370676
 42
0.022149
  0
VERTEX
  8
2
 10
23.982872
 20
14.410604
 42
-0.050791
  0
VERTEX
  8
2
 10
23.954525
 20
14.501767
 42
-0.964636
  0
VERTEX
  8
2
 10
23.961378
 20
14.502849
 42
-0.056928
  0
VERTEX
  8
2
 10
23.994464
 20
14.433646
 42
0.072458
  0
VERTEX
  8
2
 10
24.031049
 20
14.360781
 42
-0.878965
  0
VERTEX
  8
2
 10
24.040083
 20
14.367083
 42
0.006741
  0
VERTEX
  8
2
 10
24.028511
 20
14.399291
 42
-0.066175
  0
VERTEX
  8
2
 10
24.001329
 20
14.498321
 42
-0.666370
  0
VERTEX
  8
2
 10
24.010876
 20
14.500679
 42
-0.058174
  0
VERTEX
  8
2
 10
24.111454
 20
14.345859
 42
0.001049
  0
VERTEX
  8
2
 10
24.123053
 20
14.324610
 42
0.306253
  0
VERTEX
  8
2
 10
24.137883
 20
14.310433
 42
0.291635
  0
VERTEX
  8
2
 10
24.132858
 20
14.330803
 42
0.017436
  0
VERTEX
  8
2
 10
24.092095
 20
14.412353
 42
-0.028022
  0
VERTEX
  8
2
 10
24.041281
 20
14.517886
 42
-0.865809
  0
VERTEX
  8
2
 10
24.049076
 20
14.520279
 42
-0.051185
  0
VERTEX
  8
2
 10
24.214932
 20
14.296347
 42
-0.427859
  0
VERTEX
  8
2
 10
24.221606
 20
14.297378
 42
0.025030
  0
VERTEX
  8
2
 10
24.187774
 20
14.363162
 42
-0.064514
  0
VERTEX
  8
2
 10
24.136350
 20
14.477615
 42
-0.833662
  0
VERTEX
  8
2
 10
24.146396
 20
14.481382
 42
-0.058785
  0
VERTEX
  8
2
 10
24.259886
 20
14.319053
 42
0.011088
  0
VERTEX
  8
2
 10
24.304315
 20
14.245992
 42
-0.521501
  0
VERTEX
  8
2
 10
24.309415
 20
14.249851
 42
0.021057
  0
VERTEX
  8
2
 10
24.252613
 20
14.377280
 42
-0.025177
  0
VERTEX
  8
2
 10
24.211018
 20
14.470675
 42
0.973697
  0
VERTEX
  8
2
 10
24.218500
 20
14.475836
 42
-0.053814
  0
VERTEX
  8
2
 10
24.338044
 20
14.303260
 42
0.003110
  0
VERTEX
  8
2
 10
24.363319
 20
14.260900
 42
-0.292270
  0
VERTEX
  8
2
 10
24.370308
 20
14.263167
 42
0.008510
  0
VERTEX
  8
2
 10
24.332409
 20
14.338979
 42
-0.022691
  0
VERTEX
  8
2
 10
24.274265
 20
14.460906
 42
0.870214
  0
VERTEX
  8
2
 10
24.281164
 20
14.465000
 42
-0.045406
  0
VERTEX
  8
2
 10
24.428558
 20
14.275913
 42
0.004720
  0
VERTEX
  8
2
 10
24.466776
 20
14.220858
 42
-0.435468
  0
VERTEX
  8
2
 10
24.473272
 20
14.222954
 42
0.041926
  0
VERTEX
  8
2
 10
24.391386
 20
14.354300
 42
-0.005468
  0
VERTEX
  8
2
 10
24.359328
 20
14.400557
 42
0.372535
  0
VERTEX
  8
2
 10
24.365322
 20
14.402387
 42
-0.004017
  0
VERTEX
  8
2
 10
24.433369
 20
14.336011
 42
0.003135
  0
VERTEX
  8
2
 10
24.519578
 20
14.251847
 42
-0.419599
  0
VERTEX
  8
2
 10
24.525753
 20
14.256017
 42
-0.002974
  0
VERTEX
  8
2
 10
24.496628
 20
14.298426
 42
0.183798
  0
VERTEX
  8
2
 10
24.163143
 20
14.584806
 42
0.117276
  0
VERTEX
  8
2
 10
24.064010
 20
14.672724
 42
-0.805615
  0
VERTEX
  8
2
 10
24.068436
 20
14.676660
 42
-0.081074
  0
VERTEX
  8
2
 10
24.176038
 20
14.630779
 42
0.008647
  0
VERTEX
  8
2
 10
24.197157
 20
14.619329
 42
-0.689632
  0
VERTEX
  8
2
 10
24.200472
 20
14.624774
 42
0.035098
  0
VERTEX
  8
2
 10
24.147388
 20
14.666430
 42
-0.024302
  0
VERTEX
  8
2
 10
24.107629
 20
14.696657
 42
-0.954216
  0
VERTEX
  8
2
 10
24.111944
 20
14.700671
 42
-0.043670
  0
VERTEX
  8
2
 10
24.240428
 20
14.642505
 42
0.008603
  0
VERTEX
  8
2
 10
24.271583
 20
14.626576
 42
-0.691860
  0
VERTEX
  8
2
 10
24.275681
 20
14.630975
 42
0.041282
  0
VERTEX
  8
2
 10
24.228507
 20
14.668642
 42
-0.071138
  0
VERTEX
  8
2
 10
24.173314
 20
14.716007
 42
-0.417349
  0
VERTEX
  8
2
 10
24.180428
 20
14.721650
 42
-0.097936
  0
VERTEX
  8
2
 10
24.301671
 20
14.682054
 42
0.026612
  0
VERTEX
  8
2
 10
24.358790
 20
14.657237
 42
0.880596
  0
VERTEX
  8
2
 10
24.361990
 20
14.662883
 42
0.035474
  0
VERTEX
  8
2
 10
24.294146
 20
14.707882
 42
-0.042636
  0
VERTEX
  8
2
 10
24.231803
 20
14.749801
 42
-0.842820
  0
VERTEX
  8
2
 10
24.235568
 20
14.754799
 42
-0.036914
  0
VERTEX
  8
2
 10
24.349848
 20
14.720366
 42
0.033760
  0
VERTEX
  8
2
 10
24.445083
 20
14.691013
 42
0.814678
  0
VERTEX
  8
2
 10
24.446682
 20
14.700554
 42
0.067679
  0
VERTEX
  8
2
 10
24.385207
 20
14.733961
 42
-0.036336
  0
VERTEX
  8
2
 10
24.340137
 20
14.756049
 42
-0.891930
  0
VERTEX
  8
2
 10
24.342554
 20
14.763189
 42
-0.025752
  0
VERTEX
  8
2
 10
24.473211
 20
14.745762
 42
-0.299917
  0
VERTEX
  8
2
 10
24.474839
 20
14.753372
 42
0.106235
  0
VERTEX
  8
2
 10
24.035996
 20
14.805522
 42
0.916112
  0
VERTEX
  8
2
 10
24.035360
 20
14.811622
 42
-0.100994
  0
VERTEX
  8
2
 10
24.114385
 20
14.826400
 42
0.001522
  0
VERTEX
  8
2
 10
24.124143
 20
14.826947
 42
-0.413310
  0
VERTEX
  8
2
 10
24.125728
 20
14.835247
 42
0.020988
  0
VERTEX
  8
2
 10
24.112266
 20
14.837049
 42
-0.032319
  0
VERTEX
  8
2
 10
24.091886
 20
14.840129
 42
-0.716964
  0
VERTEX
  8
2
 10
24.090717
 20
14.846925
 42
-0.027419
  0
VERTEX
  8
2
 10
24.137855
 20
14.855699
 42
0.011679
  0
VERTEX
  8
2
 10
24.168596
 20
14.860793
 42
-0.642937
  0
VERTEX
  8
2
 10
24.166597
 20
14.867057
 42
0.026551
  0
VERTEX
  8
2
 10
24.130537
 20
14.864573
 42
-0.066715
  0
VERTEX
  8
2
 10
24.080915
 20
14.863515
 42
-0.796298
  0
VERTEX
  8
2
 10
24.080290
 20
14.869618
 42
-0.019909
  0
VERTEX
  8
2
 10
24.126535
 20
14.883187
 42
0.034610
  0
VERTEX
  8
2
 10
24.178210
 20
14.899275
 42
-0.913113
  0
VERTEX
  8
2
 10
24.175969
 20
14.904119
 42
0.050085
  0
VERTEX
  8
2
 10
24.096288
 20
14.891335
 42
-0.022343
  0
VERTEX
  8
2
 10
24.044649
 20
14.881008
 42
0.760884
  0
VERTEX
  8
2
 10
24.042388
 20
14.887657
 42
-0.016408
  0
VERTEX
  8
2
 10
24.113524
 20
14.919451
 42
0.025230
  0
VERTEX
  8
2
 10
24.198393
 20
14.958539
 42
-0.576952
  0
VERTEX
  8
2
 10
24.196750
 20
14.964893
 42
0.020993
  0
VERTEX
  8
2
 10
24.108414
 20
14.935811
 42
-0.015525
  0
VERTEX
  8
2
 10
24.035546
 20
14.911194
 42
0.359145
  0
VERTEX
  8
2
 10
24.033451
 20
14.916596
 42
-0.002070
  0
VERTEX
  8
2
 10
24.129504
 20
14.960846
 42
0.008570
  0
VERTEX
  8
2
 10
24.267011
 20
15.025282
 42
-0.298001
  0
VERTEX
  8
2
 10
24.264965
 20
15.028687
 42
0.012830
  0
VERTEX
  8
2
 10
24.118973
 20
14.969995
 42
-0.012110
  0
VERTEX
  8
2
 10
23.982253
 20
14.914843
 42
0.446382
  0
VERTEX
  8
2
 10
23.978257
 20
14.918800
 42
-0.006172
  0
VERTEX
  8
2
 10
23.999964
 20
14.935361
 42
0.020221
  0
VERTEX
  8
2
 10
24.033411
 20
14.961768
 42
0.184822
  0
VERTEX
  8
2
 10
24.046337
 20
14.976903
 42
0.243985
  0
VERTEX
  8
2
 10
24.030174
 20
14.967842
 42
0.001263
  0
VERTEX
  8
2
 10
24.025162
 20
14.964698
 42
-0.137526
  0
VERTEX
  8
2
 10
23.978151
 20
14.945050
 42
-0.593673
  0
VERTEX
  8
2
 10
23.976922
 20
14.950758
 42
0.017413
  0
VERTEX
  8
2
 10
24.080087
 20
15.037618
 42
-0.350071
  0
VERTEX
  8
2
 10
24.077067
 20
15.040483
 42
0.000743
  0
VERTEX
  8
2
 10
24.045527
 20
15.019691
 42
-0.005310
  0
VERTEX
  8
2
 10
23.963260
 20
14.966157
 42
0.613796
  0
VERTEX
  8
2
 10
23.958246
 20
14.970757
 42
-0.047482
  0
VERTEX
  8
2
 10
24.090813
 20
15.093953
 42
0.001666
  0
VERTEX
  8
2
 10
24.116786
 20
15.115286
 42
-0.385628
  0
VERTEX
  8
2
 10
24.113171
 20
15.118697
 42
0.060773
  0
VERTEX
  8
2
 10
23.942711
 20
14.984392
 42
0.208813
  0
VERTEX
  8
2
 10
23.939053
 20
14.987054
 42
-0.048825
  0
VERTEX
  8
2
 10
24.166819
 20
15.193897
 42
-0.303999
  0
VERTEX
  8
2
 10
24.165118
 20
15.197571
 42
0.067704
  0
VERTEX
  8
2
 10
23.884912
 20
14.961372
 42
0.964744
  0
VERTEX
  8
2
 10
23.878732
 20
14.963433
 42
-0.042600
  0
VERTEX
  8
2
 10
23.959151
 20
15.135128
 42
0.000833
  0
VERTEX
  8
2
 10
23.972279
 20
15.159615
 42
-0.620952
  0
VERTEX
  8
2
 10
23.967450
 20
15.163775
 42
0.068037
  0
VERTEX
  8
2
 10
23.902332
 20
15.066862
 42
-0.021157
  0
VERTEX
  8
2
 10
23.876210
 20
15.021547
 42
0.664221
  0
VERTEX
  8
2
 10
23.871350
 20
15.025110
 42
-0.048194
  0
VERTEX
  8
2
 10
23.975637
 20
15.255440
 42
-0.354224
  0
VERTEX
  8
2
 10
23.971872
 20
15.259022
 42
0.059515
  0
VERTEX
  8
2
 10
23.866929
 20
15.067176
 42
-0.017820
  0
VERTEX
  8
2
 10
23.822856
 20
14.973806
 42
0.654691
  0
VERTEX
  8
2
 10
23.816171
 20
14.973957
 42
-0.050938
  0
VERTEX
  8
2
 10
23.941273
 20
15.291444
 42
0.016093
  0
VERTEX
  8
2
 10
23.969757
 20
15.353643
 42
-0.355551
  0
VERTEX
  8
2
 10
23.964931
 20
15.356028
 42
0.089179
  0
VERTEX
  8
2
 10
23.801968
 20
14.995538
 42
-0.035798
  0
VERTEX
  8
2
 10
23.773503
 20
14.911651
 42
-0.104214
  0
VERTEX
  8
2
 10
23.765704
 20
14.899331
 42
-0.272542
  0
VERTEX
  8
2
 10
23.765874
 20
14.910401
 42
0.082955
  0
VERTEX
  8
2
 10
23.794162
 20
15.257360
 42
-0.014545
  0
VERTEX
  8
2
 10
23.792832
 20
15.281717
 42
0.039796
  0
VERTEX
  8
2
 10
23.791341
 20
15.320809
 42
0.096413
  0
VERTEX
  8
2
 10
23.785771
 20
15.280965
 42
-0.128484
  0
VERTEX
  8
2
 10
23.783656
 20
15.258338
 42
-0.051146
  0
VERTEX
  8
2
 10
23.780431
 20
15.279068
 42
-0.002991
  0
VERTEX
  8
2
 10
23.778083
 20
15.303266
 42
0.010787
  0
VERTEX
  8
2
 10
23.775265
 20
15.330344
 42
-0.177205
  0
VERTEX
  8
2
 10
23.770574
 20
15.329833
 42
-0.046565
  0
VERTEX
  8
2
 10
23.775093
 20
15.149082
 42
0.552847
  0
VERTEX
  8
2
 10
23.762972
 20
15.148006
 42
-0.013695
  0
VERTEX
  8
2
 10
23.756873
 20
15.211569
 42
0.028070
  0
VERTEX
  8
2
 10
23.750847
 20
15.267151
 42
-0.185609
  0
VERTEX
  8
2
 10
23.746956
 20
15.265917
 42
0.002968
  0
VERTEX
  8
2
 10
23.748295
 20
15.233175
 42
-0.015497
  0
VERTEX
  8
2
 10
23.751787
 20
15.098158
 42
0.289532
  0
VERTEX
  8
2
 10
23.746894
 20
15.096535
  0
VERTEX
  8
2
 10
23.746769
 20
15.097120
 42
-0.023015
  0
VERTEX
  8
2
 10
23.723899
 20
15.223175
 42
0.120394
  0
VERTEX
  8
2
 10
23.716474
 20
15.264178
 42
0.046601
  0
VERTEX
  8
2
 10
23.717143
 20
15.219535
 42
0.002106
  0
VERTEX
  8
2
 10
23.722259
 20
15.149948
 42
-0.013844
  0
VERTEX
  8
2
 10
23.730150
 20
15.023331
 42
-0.125715
  0
VERTEX
  8
2
 10
23.727044
 20
15.002376
 42
-0.297488
  0
VERTEX
  8
2
 10
23.717953
 20
15.018204
 42
-0.000168
  0
VERTEX
  8
2
 10
23.714358
 20
15.034152
 42
0.014193
  0
VERTEX
  8
2
 10
23.685310
 20
15.152943
 42
0.150043
  0
VERTEX
  8
2
 10
23.671848
 20
15.189616
 42
0.067368
  0
VERTEX
  8
2
 10
23.674169
 20
15.149885
 42
0.023920
  0
VERTEX
  8
2
 10
23.710499
 20
14.945964
 42
-0.119165
  0
VERTEX
  8
2
 10
23.709206
 20
14.925496
 42
-0.272614
  0
VERTEX
  8
2
 10
23.699757
 20
14.940751
 42
-0.034853
  0
VERTEX
  8
2
 10
23.688646
 20
14.973259
 42
0.029248
  0
VERTEX
  8
2
 10
23.650797
 20
15.079567
 42
0.190818
  0
VERTEX
  8
2
 10
23.639564
 20
15.098971
 42
0.093931
  0
VERTEX
  8
2
 10
23.641935
 20
15.075628
 42
0.010189
  0
VERTEX
  8
2
 10
23.667195
 20
14.966380
 42
-0.012157
  0
VERTEX
  8
2
 10
23.687481
 20
14.878454
 42
-0.117734
  0
VERTEX
  8
2
 10
23.688899
 20
14.854975
 42
-0.189806
  0
VERTEX
  8
2
 10
23.675865
 20
14.875636
 42
-0.000068
  0
VERTEX
  8
2
 10
23.670500
 20
14.892447
 42
0.011986
  0
VERTEX
  8
2
 10
23.578115
 20
15.166353
 42
0.083861
  0
VERTEX
  8
2
 10
23.481562
 20
15.359390
 42
0.223670
  0
VERTEX
  8
2
 10
23.464937
 20
15.370273
 42
0.324647
  0
VERTEX
  8
2
 10
23.472651
 20
15.352922
 42
-0.116035
  0
VERTEX
  8
2
 10
23.551764
 20
15.171976
 42
0.461987
  0
VERTEX
  8
2
 10
23.546481
 20
15.171774
 42
0.021320
  0
VERTEX
  8
2
 10
23.498412
 20
15.232115
 42
0.079365
  0
VERTEX
  8
2
 10
23.478951
 20
15.251002
 42
0.185930
  0
VERTEX
  8
2
 10
23.490793
 20
15.226269
 42
-0.075966
  0
VERTEX
  8
2
 10
23.578947
 20
15.008307
 42
0.697488
  0
VERTEX
  8
2
 10
23.571067
 20
15.002944
 42
0.017259
  0
VERTEX
  8
2
 10
23.387183
 20
15.349275
 42
0.205496
  0
VERTEX
  8
2
 10
23.370143
 20
15.367745
 42
0.284054
  0
VERTEX
  8
2
 10
23.378383
 20
15.343318
 42
0.015840
  0
VERTEX
  8
2
 10
23.409326
 20
15.284816
 42
-0.031250
  0
VERTEX
  8
2
 10
23.526004
 20
15.049790
 42
0.214903
  0
VERTEX
  8
2
 10
23.521192
 20
15.049544
 42
-0.010381
  0
VERTEX
  8
2
 10
23.478437
 20
15.114682
 42
0.021146
  0
VERTEX
  8
2
 10
23.382940
 20
15.255671
 42
-0.309517
  0
VERTEX
  8
2
 10
23.376968
 20
15.252425
 42
0.011320
  0
VERTEX
  8
2
 10
23.411172
 20
15.200781
 42
-0.025390
  0
VERTEX
  8
2
 10
23.483296
 20
15.087554
 42
0.668513
  0
VERTEX
  8
2
 10
23.477078
 20
15.087749
 42
-0.035906
  0
VERTEX
  8
2
 10
23.445942
 20
15.116511
 42
-0.260440
  0
VERTEX
  8
2
 10
23.440839
 20
15.112789
 42
0.016889
  0
VERTEX
  8
2
 10
23.458512
 20
15.095610
 42
-0.066270
  0
VERTEX
  8
2
 10
23.528449
 20
15.016101
 42
0.778904
  0
VERTEX
  8
2
 10
23.520149
 20
15.011487
 42
-0.035581
  0
VERTEX
  8
2
 10
23.494710
 20
15.031655
 42
0.015295
  0
VERTEX
  8
2
 10
23.478632
 20
15.045018
 42
-0.335648
  0
VERTEX
  8
2
 10
23.475349
 20
15.039882
 42
-0.031316
  0
VERTEX
  8
2
 10
23.606415
 20
14.841133
 42
-0.123471
  0
VERTEX
  8
2
 10
23.612351
 20
14.826241
 42
-0.126729
  0
VERTEX
  8
2
 10
23.599197
 20
14.840110
 42
-0.025734
  0
VERTEX
  8
2
 10
23.468069
 20
15.016806
 42
0.024431
  0
VERTEX
  8
2
 10
23.338499
 20
15.191951
 42
0.086959
  0
VERTEX
  8
2
 10
23.187717
 20
15.324089
 42
-0.295481
  0
VERTEX
  8
2
 10
23.184644
 20
15.317037
 42
-0.087470
  0
VERTEX
  8
2
 10
23.343493
 20
15.164236
 42
0.485559
  0
VERTEX
  8
2
 10
23.338767
 20
15.160512
 42
-0.025700
  0
VERTEX
  8
2
 10
23.254408
 20
15.232537
 42
0.009372
  0
VERTEX
  8
2
 10
23.211269
 20
15.270768
 42
-0.248748
  0
VERTEX
  8
2
 10
23.207175
 20
15.265711
 42
0.000804
  0
VERTEX
  8
2
 10
23.231312
 20
15.242517
 42
-0.018051
  0
VERTEX
  8
2
 10
23.368943
 20
15.105024
 42
0.291811
  0
VERTEX
  8
2
 10
23.365256
 20
15.099446
 42
0.022149
  0
VERTEX
  8
2
 10
23.265315
 20
15.182651
 42
-0.002835
  0
VERTEX
  8
2
 10
23.228831
 20
15.211450
 42
-0.239544
  0
VERTEX
  8
2
 10
23.224360
 20
15.207325
 42
0.012473
  0
VERTEX
  8
2
 10
23.300320
 20
15.138251
 42
-0.022558
  0
VERTEX
  8
2
 10
23.385411
 20
15.059601
 42
0.370425
  0
VERTEX
  8
2
 10
23.382568
 20
15.054901
 42
-0.006981
  0
VERTEX
  8
2
 10
23.294464
 20
15.106635
 42
0.011226
  0
VERTEX
  8
2
 10
23.192167
 20
15.166140
 42
0.184992
  0
VERTEX
  8
2
 10
23.175680
 20
15.173016
 42
0.173318
  0
VERTEX
  8
2
 10
23.189444
 20
15.160933
 42
-0.025666
  0
VERTEX
  8
2
 10
23.409613
 20
15.004578
 42
0.486405
  0
VERTEX
  8
2
 10
23.408485
 20
14.997525
 42
-0.032993
  0
VERTEX
  8
2
 10
23.291879
 20
15.067779
 42
0.003315
  0
VERTEX
  8
2
 10
23.262329
 20
15.086999
 42
0.061422
  0
VERTEX
  8
2
 10
23.245779
 20
15.096311
 42
0.114920
  0
VERTEX
  8
2
 10
23.259181
 20
15.082968
 42
-0.016138
  0
VERTEX
  8
2
 10
23.447249
 20
14.946692
 42
0.310695
  0
VERTEX
  8
2
 10
23.444549
 20
14.941725
 42
-0.044418
  0
VERTEX
  8
2
 10
23.305103
 20
15.025966
 42
0.017977
  0
VERTEX
  8
2
 10
23.254322
 20
15.059143
 42
-0.398805
  0
VERTEX
  8
2
 10
23.250279
 20
15.055133
 42
0.043854
  0
VERTEX
  8
2
 10
23.310686
 20
15.010375
 42
-0.048908
  0
VERTEX
  8
2
 10
23.385172
 20
14.953876
 42
0.388084
  0
VERTEX
  8
2
 10
23.381800
 20
14.951106
 42
-0.017942
  0
VERTEX
  8
2
 10
23.338872
 20
14.973679
 42
0.013719
  0
VERTEX
  8
2
 10
23.294673
 20
14.997109
 42
0.083922
  0
VERTEX
  8
2
 10
23.283505
 20
15.001093
 42
0.654737
  0
VERTEX
  8
2
 10
23.285993
 20
14.995503
 42
0.039897
  0
VERTEX
  8
2
 10
23.377656
 20
14.940569
 42
-0.038036
  0
VERTEX
  8
2
 10
23.468764
 20
14.886214
 42
0.393753
  0
VERTEX
  8
2
 10
23.463003
 20
14.881315
 42
-0.019132
  0
VERTEX
  8
2
 10
23.352188
 20
14.937083
 42
0.009830
  0
VERTEX
  8
2
 10
23.290335
 20
14.969022
 42
-0.179728
  0
VERTEX
  8
2
 10
23.287811
 20
14.965554
 42
-0.024894
  0
VERTEX
  8
2
 10
23.376510
 20
14.890408
 42
0.000079
  0
VERTEX
  8
2
 10
23.379796
 20
14.887426
 42
0.252842
  0
VERTEX
  8
2
 10
23.375153
 20
14.883712
 42
0.088394
  0
VERTEX
  8
2
 10
23.107730
 20
14.975614
 42
0.036742
  0
VERTEX
  8
2
 10
22.887567
 20
15.004674
 42
-0.275711
  0
VERTEX
  8
2
 10
22.885011
 20
14.998392
 42
-0.008656
  0
VERTEX
  8
2
 10
23.216989
 20
14.935643
 42
0.275282
  0
VERTEX
  8
2
 10
23.214835
 20
14.930601
 42
0.028730
  0
VERTEX
  8
2
 10
22.924164
 20
14.947899
 42
0.069856
  0
VERTEX
  8
2
 10
22.905252
 20
14.946497
 42
0.109861
  0
VERTEX
  8
2
 10
22.923842
 20
14.943021
 42
-0.021667
  0
VERTEX
  8
2
 10
23.241497
 20
14.898833
 42
0.458186
  0
VERTEX
  8
2
 10
23.244199
 20
14.893597
 42
-0.010945
  0
VERTEX
  8
2
 10
23.112578
 20
14.897692
 42
0.007167
  0
VERTEX
  8
2
 10
23.014317
 20
14.901178
 42
0.072989
  0
VERTEX
  8
2
 10
22.995001
 20
14.900049
 42
0.145191
  0
VERTEX
  8
2
 10
23.012479
 20
14.895389
 42
0.017832
  0
VERTEX
  8
2
 10
23.169236
 20
14.871756
 42
0.038562
  0
VERTEX
  8
2
 10
23.155182
 20
14.860766
 42
-0.000711
  0
VERTEX
  8
2
 10
23.152089
 20
14.858156
 42
0.006920
  0
VERTEX
  8
2
 10
23.148037
 20
14.854625
 42
-0.135240
  0
VERTEX
  8
2
 10
23.139100
 20
14.848642
 42
-0.027685
  0
VERTEX
  8
2
 10
23.125250
 20
14.848587
 42
0.095166
  0
VERTEX
  8
2
 10
23.092057
 20
14.845290
 42
-0.381323
  0
VERTEX
  8
2
 10
23.093160
 20
14.839432
 42
0.011687
  0
VERTEX
  8
2
 10
23.119818
 20
14.838540
 42
-0.004212
  0
VERTEX
  8
2
 10
23.132589
 20
14.838235
 42
0.044269
  0
VERTEX
  8
2
 10
22.945498
 20
14.645058
 42
-0.002650
  0
VERTEX
  8
2
 10
22.903131
 20
14.595949
 42
-0.031460
  0
VERTEX
  8
2
 10
22.877361
 20
14.589905
 42
0.014354
  0
VERTEX
  8
2
 10
22.854676
 20
14.585049
 42
-0.618143
  0
VERTEX
  8
2
 10
22.855610
 20
14.579890
 42
0.036586
  0
VERTEX
  8
2
 10
22.894558
 20
14.584226
 42
0.023720
  0
VERTEX
  8
2
 10
22.824122
 20
14.474224
 42
-0.003856
  0
VERTEX
  8
2
 10
22.802087
 20
14.437608
 42
0.639482
  0
VERTEX
  8
2
 10
22.790881
 20
14.441769
 42
-0.058582
  0
VERTEX
  8
2
 10
22.842026
 20
14.543172
 42
0.119358
  0
VERTEX
  8
2
 10
22.851578
 20
14.566770
 42
0.039563
  0
VERTEX
  8
2
 10
22.837203
 20
14.546282
 42
0.000390
  0
VERTEX
  8
2
 10
22.832872
 20
14.539606
 42
-0.025334
  0
VERTEX
  8
2
 10
22.800710
 20
14.493006
 42
0.804231
  0
VERTEX
  8
2
 10
22.793775
 20
14.491108
 42
-0.092965
  0
VERTEX
  8
2
 10
22.826193
 20
14.578343
 42
0.005079
  0
VERTEX
  8
2
 10
22.834025
 20
14.594217
 42
0.162671
  0
VERTEX
  8
2
 10
22.839065
 20
14.611539
 42
0.266679
  0
VERTEX
  8
2
 10
22.828112
 20
14.598467
 42
0.008282
  0
VERTEX
  8
2
 10
22.808385
 20
14.559180
 42
-0.019146
  0
VERTEX
  8
2
 10
22.781144
 20
14.506468
 42
0.591654
  0
VERTEX
  8
2
 10
22.770474
 20
14.507328
 42
-0.047261
  0
VERTEX
  8
2
 10
22.792516
 20
14.659664
 42
0.009090
  0
VERTEX
  8
2
 10
22.801424
 20
14.705901
 42
0.121129
  0
VERTEX
  8
2
 10
22.802173
 20
14.720981
 42
0.196740
  0
VERTEX
  8
2
 10
22.794025
 20
14.708419
 42
0.013228
  0
VERTEX
  8
2
 10
22.774497
 20
14.646019
 42
-0.003794
  0
VERTEX
  8
2
 10
22.767964
 20
14.624169
 42
0.450709
  0
VERTEX
  8
2
 10
22.762994
 20
14.622357
 42
-0.091282
  0
VERTEX
  8
2
 10
22.784724
 20
14.793068
 42
0.205306
  0
VERTEX
  8
2
 10
22.785859
 20
14.812936
 42
0.242818
  0
VERTEX
  8
2
 10
22.777378
 20
14.795290
 42
0.025644
  0
VERTEX
  8
2
 10
22.755941
 20
14.710480
 42
-0.001171
  0
VERTEX
  8
2
 10
22.752550
 20
14.695001
 42
0.483534
  0
VERTEX
  8
2
 10
22.745218
 20
14.694224
 42
-0.047206
  0
VERTEX
  8
2
 10
22.761696
 20
14.919192
 42
0.180849
  0
VERTEX
  8
2
 10
22.762714
 20
14.939125
 42
0.163875
  0
VERTEX
  8
2
 10
22.753689
 20
14.919424
 42
0.050100
  0
VERTEX
  8
2
 10
22.724383
 20
14.563262
 42
-0.013281
  0
VERTEX
  8
2
 10
22.721546
 20
14.473719
 42
-0.151245
  0
VERTEX
  8
2
 10
22.718169
 20
14.459319
 42
-0.266154
  0
VERTEX
  8
2
 10
22.711907
 20
14.470832
 42
0.013747
  0
VERTEX
  8
2
 10
22.661179
 20
14.742526
 42
-0.005442
  0
VERTEX
  8
2
 10
22.638853
 20
14.854951
 42
0.066970
  0
VERTEX
  8
2
 10
22.632554
 20
14.881561
 42
0.099468
  0
VERTEX
  8
2
 10
22.631718
 20
14.853243
 42
0.027481
  0
VERTEX
  8
2
 10
22.648188
 20
14.733758
 42
-0.019804
  0
VERTEX
  8
2
 10
22.658008
 20
14.668724
 42
0.786005
  0
VERTEX
  8
2
 10
22.651842
 20
14.658275
 42
-0.053067
  0
VERTEX
  8
2
 10
22.621734
 20
14.731762
 42
0.021356
  0
VERTEX
  8
2
 10
22.606837
 20
14.772233
 42
0.192840
  0
VERTEX
  8
2
 10
22.601077
 20
14.780747
 42
0.161348
  0
VERTEX
  8
2
 10
22.600689
 20
14.767182
 42
0.038500
  0
VERTEX
  8
2
 10
22.640068
 20
14.615285
 42
-0.012362
  0
VERTEX
  8
2
 10
22.656319
 20
14.560251
 42
0.310321
  0
VERTEX
  8
2
 10
22.650392
 20
14.556686
 42
-0.026206
  0
VERTEX
  8
2
 10
22.614844
 20
14.644294
 42
0.008835
  0
VERTEX
  8
2
 10
22.595972
 20
14.693471
 42
0.115105
  0
VERTEX
  8
2
 10
22.588178
 20
14.707801
 42
0.159997
  0
VERTEX
  8
2
 10
22.589092
 20
14.689808
 42
0.017506
  0
VERTEX
  8
2
 10
22.613014
 20
14.599412
 42
-0.030099
  0
VERTEX
  8
2
 10
22.642850
 20
14.478244
 42
0.466102
  0
VERTEX
  8
2
 10
22.638875
 20
14.476944
 42
0.071477
  0
VERTEX
  8
2
 10
22.438600
 20
14.756528
 42
0.261244
  0
VERTEX
  8
2
 10
22.422416
 20
14.769607
 42
0.201034
  0
VERTEX
  8
2
 10
22.430758
 20
14.749343
 42
0.016793
  0
VERTEX
  8
2
 10
22.483278
 20
14.682622
 42
-0.021436
  0
VERTEX
  8
2
 10
22.534683
 20
14.616819
 42
0.314490
  0
VERTEX
  8
2
 10
22.529307
 20
14.612506
 42
-0.010266
  0
VERTEX
  8
2
 10
22.487776
 20
14.647049
 42
0.008649
  0
VERTEX
  8
2
 10
22.438021
 20
14.688482
 42
0.091380
  0
VERTEX
  8
2
 10
22.422270
 20
14.698812
 42
0.164405
  0
VERTEX
  8
2
 10
22.433396
 20
14.682625
 42
0.030785
  0
VERTEX
  8
2
 10
22.499283
 20
14.611944
 42
-0.026789
  0
VERTEX
  8
2
 10
22.545100
 20
14.563593
 42
0.755318
  0
VERTEX
  8
2
 10
22.538047
 20
14.556239
 42
-0.018328
  0
VERTEX
  8
2
 10
22.491189
 20
14.593411
 42
0.017086
  0
VERTEX
  8
2
 10
22.445176
 20
14.630001
 42
0.157006
  0
VERTEX
  8
2
 10
22.427829
 20
14.639966
 42
0.256989
  0
VERTEX
  8
2
 10
22.439799
 20
14.623161
 42
0.031242
  0
VERTEX
  8
2
 10
22.492973
 20
14.571483
 42
-0.028532
  0
VERTEX
  8
2
 10
22.543206
 20
14.523033
 42
0.003182
  0
VERTEX
  8
2
 10
22.545609
 20
14.520376
 42
-0.058524
  0
VERTEX
  8
2
 10
22.554197
 20
14.509619
 42
-0.896894
  0
VERTEX
  8
2
 10
22.545211
 20
14.510119
 42
-0.024634
  0
VERTEX
  8
2
 10
22.500115
 20
14.526917
 42
0.007569
  0
VERTEX
  8
2
 10
22.470504
 20
14.538540
 42
0.100904
  0
VERTEX
  8
2
 10
22.455543
 20
14.542436
 42
0.207755
  0
VERTEX
  8
2
 10
22.467183
 20
14.532006
 42
-0.020887
  0
VERTEX
  8
2
 10
22.570351
 20
14.445707
 42
0.460886
  0
VERTEX
  8
2
 10
22.570368
 20
14.439399
 42
0.039013
  0
VERTEX
  8
2
 10
22.471518
 20
14.481208
 42
0.199778
  0
VERTEX
  8
2
 10
22.449479
 20
14.487619
 42
0.232648
  0
VERTEX
  8
2
 10
22.469469
 20
14.474736
 42
-0.095204
  0
VERTEX
  8
2
 10
22.584132
 20
14.393360
 42
-0.926088
  0
VERTEX
  8
2
 10
22.575062
 20
14.389761
 42
-0.028291
  0
VERTEX
  8
2
 10
22.509982
 20
14.408491
 42
0.015927
  0
VERTEX
  8
2
 10
22.466731
 20
14.421610
 42
-0.241290
  0
VERTEX
  8
2
 10
22.465439
 20
14.415542
 42
-0.086522
  0
VERTEX
  8
2
 10
22.641465
 20
14.298404
 42
0.867221
  0
VERTEX
  8
2
 10
22.637728
 20
14.293632
 42
0.106402
  0
VERTEX
  8
2
 10
22.285063
 20
14.358566
 42
0.094975
  0
VERTEX
  8
2
 10
22.089339
 20
14.302576
 42
-0.079287
  0
VERTEX
  8
2
 10
21.974975
 20
14.264721
 42
0.387963
  0
VERTEX
  8
2
 10
21.962324
 20
14.258686
 42
0.186871
  0
VERTEX
  8
2
 10
21.978989
 20
14.255918
 42
0.048747
  0
VERTEX
  8
2
 10
22.212919
 20
14.304824
 42
0.612353
  0
VERTEX
  8
2
 10
22.217161
 20
14.301568
 42
0.097359
  0
VERTEX
  8
2
 10
22.089487
 20
14.206903
 42
0.468117
  0
VERTEX
  8
2
 10
22.079949
 20
14.193141
 42
0.086440
  0
VERTEX
  8
2
 10
22.096483
 20
14.200269
 42
0.011284
  0
VERTEX
  8
2
 10
22.123483
 20
14.217126
 42
-0.065909
  0
VERTEX
  8
2
 10
22.234364
 20
14.275685
 42
0.843917
  0
VERTEX
  8
2
 10
22.240612
 20
14.270721
 42
0.019908
  0
VERTEX
  8
2
 10
22.165961
 20
14.198512
 42
0.200044
  0
VERTEX
  8
2
 10
22.154156
 20
14.181124
 42
0.145307
  0
VERTEX
  8
2
 10
22.176768
 20
14.194308
 42
0.011049
  0
VERTEX
  8
2
 10
22.199140
 20
14.209464
 42
-0.112367
  0
VERTEX
  8
2
 10
22.292936
 20
14.252575
 42
-0.178412
  0
VERTEX
  8
2
 10
22.307441
 20
14.254535
 42
-0.215549
  0
VERTEX
  8
2
 10
22.302497
 20
14.246508
 42
0.041212
  0
VERTEX
  8
2
 10
22.243691
 20
14.197247
 42
-0.000247
  0
VERTEX
  8
2
 10
22.238869
 20
14.192718
 42
-0.947152
  0
VERTEX
  8
2
 10
22.243821
 20
14.188646
 42
-0.119724
  0
VERTEX
  8
2
 10
22.438735
 20
14.250707
 42
-0.161207
  0
VERTEX
  8
2
 10
22.465273
 20
14.243918
 42
-0.496165
  0
VERTEX
  8
2
 10
22.446194
 20
14.229289
 42
0.115356
  0
VERTEX
  8
2
 10
22.053648
 20
14.015723
 42
-0.009961
  0
VERTEX
  8
2
 10
21.974703
 20
13.953971
 42
-0.204095
  0
VERTEX
  8
2
 10
21.978632
 20
13.950962
 42
-0.001089
  0
VERTEX
  8
2
 10
22.008766
 20
13.965818
 42
0.004817
  0
VERTEX
  8
2
 10
22.083726
 20
14.003231
 42
0.999695
  0
VERTEX
  8
2
 10
22.093936
 20
14.000107
 42
-0.071443
  0
VERTEX
  8
2
 10
22.057059
 20
13.956540
 42
0.056470
  0
VERTEX
  8
2
 10
22.029239
 20
13.925169
 42
-0.927447
  0
VERTEX
  8
2
 10
22.032597
 20
13.921458
 42
0.000478
  0
VERTEX
  8
2
 10
22.048422
 20
13.934760
 42
-0.017538
  0
VERTEX
  8
2
 10
22.147876
 20
14.015043
 42
0.588114
  0
VERTEX
  8
2
 10
22.152265
 20
14.010428
 42
-0.026354
  0
VERTEX
  8
2
 10
22.107168
 20
13.947967
 42
-0.404104
  0
VERTEX
  8
2
 10
22.112964
 20
13.942733
 42
0.002423
  0
VERTEX
  8
2
 10
22.151699
 20
13.969669
 42
-0.006675
  0
VERTEX
  8
2
 10
22.214369
 20
14.012847
 42
-0.081399
  0
VERTEX
  8
2
 10
22.239505
 20
14.022941
 42
-0.751186
  0
VERTEX
  8
2
 10
22.244380
 20
14.018090
 42
-0.121656
  0
VERTEX
  8
2
 10
22.217953
 20
13.989786
 42
-0.039944
  0
VERTEX
  8
2
 10
22.138498
 20
13.937169
 42
0.122281
  0
VERTEX
  8
2
 10
21.947550
 20
13.777318
 42
-0.400847
  0
VERTEX
  8
2
 10
21.951547
 20
13.775164
 42
-0.125383
  0
VERTEX
  8
2
 10
22.099964
 20
13.878958
 42
-0.848199
  0
VERTEX
  8
2
 10
22.105803
 20
13.873707
 42
-0.000192
  0
VERTEX
  8
2
 10
22.100844
 20
13.865607
 42
0.028056
  0
VERTEX
  8
2
 10
22.037819
 20
13.754512
 42
-0.440225
  0
VERTEX
  8
2
 10
22.042517
 20
13.754136
 42
-0.129861
  0
VERTEX
  8
2
 10
22.161464
 20
13.875387
 42
-0.943051
  0
VERTEX
  8
2
 10
22.165072
 20
13.871136
 42
-0.000697
  0
VERTEX
  8
2
 10
22.161161
 20
13.864802
 42
0.038510
  0
VERTEX
  8
2
 10
22.135394
 20
13.818133
 42
-0.510441
  0
VERTEX
  8
2
 10
22.139111
 20
13.815525
  0
VERTEX
  8
2
 10
22.139332
 20
13.815795
 42
-0.066153
  0
VERTEX
  8
2
 10
22.244803
 20
13.922001
 42
-0.766623
  0
VERTEX
  8
2
 10
22.250715
 20
13.917574
 42
-0.011902
  0
VERTEX
  8
2
 10
22.233240
 20
13.883692
 42
0.043077
  0
VERTEX
  8
2
 10
22.192737
 20
13.794819
 42
-0.611394
  0
VERTEX
  8
2
 10
22.202867
 20
13.795058
 42
0.005281
  0
VERTEX
  8
2
 10
22.221840
 20
13.821197
 42
-0.034598
  0
VERTEX
  8
2
 10
22.271660
 20
13.884711
 42
-0.923784
  0
VERTEX
  8
2
 10
22.277186
 20
13.879029
 42
0.025625
  0
VERTEX
  8
2
 10
22.271872
 20
13.831793
 42
-0.000607
  0
VERTEX
  8
2
 10
22.271481
 20
13.826744
 42
-0.504045
  0
VERTEX
  8
2
 10
22.275747
 20
13.825532
 42
0.010095
  0
VERTEX
  8
2
 10
22.289061
 20
13.852744
 42
-0.059740
  0
VERTEX
  8
2
 10
22.326989
 20
13.918728
 42
-0.215801
  0
VERTEX
  8
2
 10
22.337057
 20
13.928628
 42
-0.495454
  0
VERTEX
  8
2
 10
22.338339
 20
13.919593
 42
0.019643
  0
VERTEX
  8
2
 10
22.304914
 20
13.831026
 42
-0.408480
  0
VERTEX
  8
2
 10
22.309469
 20
13.829407
 42
0.002391
  0
VERTEX
  8
2
 10
22.319848
 20
13.846933
 42
-0.044421
  0
VERTEX
  8
2
 10
22.420482
 20
13.995661
 42
-0.978923
  0
VERTEX
  8
2
 10
22.426903
 20
13.993438
 42
-0.045112
  0
VERTEX
  8
2
 10
22.407057
 20
13.951531
 42
0.020775
  0
VERTEX
  8
2
 10
22.391356
 20
13.920790
 42
-0.720814
  0
VERTEX
  8
2
 10
22.397021
 20
13.918297
 42
0.009235
  0
VERTEX
  8
2
 10
22.414884
 20
13.938768
 42
-0.022708
  0
VERTEX
  8
2
 10
22.445997
 20
13.973276
 42
0.636647
  0
VERTEX
  8
2
 10
22.451772
 20
13.970390
 42
-0.026465
  0
VERTEX
  8
2
 10
22.440912
 20
13.883374
 42
0.013088
  0
VERTEX
  8
2
 10
22.436765
 20
13.854860
 42
-0.444942
  0
VERTEX
  8
2
 10
22.445346
 20
13.852617
 42
-0.009761
  0
VERTEX
  8
2
 10
22.538571
 20
14.005585
 42
-0.052018
  0
VERTEX
  8
2
 10
22.633644
 20
14.128701
 42
-0.274662
  0
VERTEX
  8
2
 10
22.642765
 20
14.135495
 42
-0.146672
  0
VERTEX
  8
2
 10
22.637272
 20
14.123771
 42
0.062877
  0
VERTEX
  8
2
 10
22.606566
 20
14.069588
 42
0.698124
  0
VERTEX
  8
2
 10
22.609130
 20
14.063199
 42
0.105791
  0
VERTEX
  8
2
 10
22.624994
 20
14.073232
 42
0.747587
  0
VERTEX
  8
2
 10
22.630447
 20
14.071003
 42
0.023910
  0
VERTEX
  8
2
 10
22.554180
 20
13.910417
 42
-0.005617
  0
VERTEX
  8
2
 10
22.521360
 20
13.836651
 42
0.196868
  0
VERTEX
  8
2
 10
22.516945
 20
13.819908
 42
0.138082
  0
VERTEX
  8
2
 10
22.527103
 20
13.832394
 42
0.006547
  0
VERTEX
  8
2
 10
22.544933
 20
13.863270
 42
-0.030236
  0
VERTEX
  8
2
 10
22.587496
 20
13.932622
 42
0.751333
  0
VERTEX
  8
2
 10
22.592332
 20
13.931464
 42
0.010816
  0
VERTEX
  8
2
 10
22.495172
 20
13.644108
 42
0.082703
  0
VERTEX
  8
2
 10
22.489810
 20
13.620149
 42
0.012018
  0
VERTEX
  8
2
 10
22.500883
 20
13.643176
 42
0.022452
  0
VERTEX
  8
2
 10
22.525842
 20
13.707459
 42
-0.020598
  0
VERTEX
  8
2
 10
22.549343
 20
13.768485
 42
0.405431
  0
VERTEX
  8
2
 10
22.554783
 20
13.765579
 42
-0.000493
  0
VERTEX
  8
2
 10
22.545775
 20
13.729182
 42
0.022953
  0
VERTEX
  8
2
 10
22.494097
 20
13.495365
 42
-0.488082
  0
VERTEX
  8
2
 10
22.501226
 20
13.494322
 42
0.002695
  0
VERTEX
  8
2
 10
22.520784
 20
13.561307
 42
-0.005949
  0
VERTEX
  8
2
 10
22.557168
 20
13.684021
 42
0.411451
  0
VERTEX
  8
2
 10
22.562621
 20
13.682918
 42
0.045950
  0
VERTEX
  8
2
 10
22.560240
 20
13.566096
 42
-0.487152
  0
VERTEX
  8
2
 10
22.566781
 20
13.567794
 42
0.006132
  0
VERTEX
  8
2
 10
22.572615
 20
13.633415
 42
-0.017776
  0
VERTEX
  8
2
 10
22.583728
 20
13.739915
 42
-0.257623
  0
VERTEX
  8
2
 10
22.590379
 20
13.757356
 42
-0.401584
  0
VERTEX
  8
2
 10
22.594526
 20
13.743506
 42
-0.026238
  0
VERTEX
  8
2
 10
22.589065
 20
13.684446
 42
0.048395
  0
VERTEX
  8
2
 10
22.583396
 20
13.592737
 42
-0.657062
  0
VERTEX
  8
2
 10
22.590369
 20
13.594403
 42
0.012824
  0
VERTEX
  8
2
 10
22.608466
 20
13.713406
 42
-0.004478
  0
VERTEX
  8
2
 10
22.618633
 20
13.784914
 42
0.218707
  0
VERTEX
  8
2
 10
22.623572
 20
13.787183
 42
0.026617
  0
VERTEX
  8
2
 10
22.620969
 20
13.690868
 42
-0.405436
  0
VERTEX
  8
2
 10
22.626407
 20
13.692453
 42
-0.013019
  0
VERTEX
  8
2
 10
22.648354
 20
13.803872
 42
0.000371
  0
VERTEX
  8
2
 10
22.651778
 20
13.819812
 42
0.530684
  0
VERTEX
  8
2
 10
22.660746
 20
13.818914
 42
0.101334
  0
VERTEX
  8
2
 10
22.660850
 20
13.788542
 42
0.066194
  0
VERTEX
  8
2
 10
22.668860
 20
13.812219
  0
VERTEX
  8
2
 10
22.669074
 20
13.812967
 42
-0.020534
  0
VERTEX
  8
2
 10
22.705485
 20
13.912281
 42
-0.959594
  0
VERTEX
  8
2
 10
22.742753
 20
13.899022
 42
-0.053094
  0
VERTEX
  8
2
 10
22.573587
 20
13.503933
 42
-0.044626
  0
VERTEX
  8
2
 10
22.167947
 20
12.878383
  0
VERTEX
  8
2
 10
21.980151
 20
12.878383
 42
-0.134193
  0
VERTEX
  8
2
 10
22.042575
 20
12.948929
 42
0.071243
  0
VERTEX
  8
2
 10
22.064772
 20
12.971873
 42
0.791659
  0
VERTEX
  8
2
 10
22.063864
 20
12.980815
 42
0.111319
  0
VERTEX
  8
2
 10
21.988061
 20
12.929690
 42
0.676424
  0
VERTEX
  8
2
 10
21.952789
 20
12.960154
 42
0.105807
  0
VERTEX
  8
2
 10
21.994287
 20
13.002594
 42
-0.057675
  0
VERTEX
  8
2
 10
22.023335
 20
13.037112
 42
0.115884
  0
VERTEX
  8
2
 10
22.066224
 20
13.085213
 42
0.095952
  0
VERTEX
  8
2
 10
22.010508
 20
13.041922
 42
0.000112
  0
VERTEX
  8
2
 10
22.006139
 20
13.037862
 42
-0.070917
  0
VERTEX
  8
2
 10
21.958297
 20
12.998817
 42
-0.593544
  0
VERTEX
  8
2
 10
21.943168
 20
13.022682
 42
-0.218076
  0
VERTEX
  8
2
 10
21.997272
 20
13.113934
 42
0.004298
  0
VERTEX
  8
2
 10
22.008904
 20
13.125296
 42
0.123295
  0
VERTEX
  8
2
 10
22.030950
 20
13.154958
 42
0.349955
  0
VERTEX
  8
2
 10
22.007303
 20
13.141329
  0
VERTEX
  8
2
 10
22.005907
 20
13.140073
 42
-0.049232
  0
VERTEX
  8
2
 10
21.927136
 20
13.077196
 42
-0.277528
  0
VERTEX
  8
2
 10
21.904240
 20
13.070127
 42
-0.190698
  0
VERTEX
  8
2
 10
21.907896
 20
13.096436
 42
-0.037807
  0
VERTEX
  8
2
 10
21.999285
 20
13.250356
 42
0.215665
  0
VERTEX
  8
2
 10
22.012689
 20
13.281342
 42
0.171080
  0
VERTEX
  8
2
 10
21.989665
 20
13.258372
 42
-0.042456
  0
VERTEX
  8
2
 10
21.917515
 20
13.173396
 42
-0.132676
  0
VERTEX
  8
2
 10
21.900398
 20
13.160464
 42
-0.485679
  0
VERTEX
  8
2
 10
21.893641
 20
13.167010
 42
-0.062907
  0
VERTEX
  8
2
 10
21.897865
 20
13.215621
 42
0.000075
  0
VERTEX
  8
2
 10
21.898276
 20
13.218289
 42
-0.063628
  0
VERTEX
  8
2
 10
22.013715
 20
13.441153
 42
0.050632
  0
VERTEX
  8
2
 10
22.046183
 20
13.495265
 42
-0.691025
  0
VERTEX
  8
2
 10
22.040321
 20
13.494363
 42
0.030279
  0
VERTEX
  8
2
 10
22.013715
 20
13.465203
 42
0.027023
  0
VERTEX
  8
2
 10
21.938069
 20
13.362991
 42
-0.014365
  0
VERTEX
  8
2
 10
21.901482
 20
13.311283
 42
-0.359942
  0
VERTEX
  8
2
 10
21.875959
 20
13.291411
 42
-0.115085
  0
VERTEX
  8
2
 10
21.872575
 20
13.326454
 42
0.001749
  0
VERTEX
  8
2
 10
21.872622
 20
13.336936
 42
-0.033923
  0
VERTEX
  8
2
 10
21.933549
 20
13.657601
 42
0.048774
  0
VERTEX
  8
2
 10
21.940764
 20
13.688466
 42
-0.792572
  0
VERTEX
  8
2
 10
21.937156
 20
13.691672
 42
0.083591
  0
VERTEX
  8
2
 10
21.919118
 20
13.655999
 42
0.020693
  0
VERTEX
  8
2
 10
21.843762
 20
13.336936
 42
-0.280101
  0
VERTEX
  8
2
 10
21.821965
 20
13.293368
 42
-0.442403
  0
VERTEX
  8
2
 10
21.803678
 20
13.325712
 42
0.210819
  0
VERTEX
  8
2
 10
21.685032
 20
13.530939
 42
0.190547
  0
VERTEX
  8
2
 10
21.645772
 20
13.547995
 42
0.270606
  0
VERTEX
  8
2
 10
21.673810
 20
13.522922
 42
-0.227022
  0
VERTEX
  8
2
 10
21.776422
 20
13.330522
 42
-0.071158
  0
VERTEX
  8
2
 10
21.773910
 20
13.275135
 42
0.725894
  0
VERTEX
  8
2
 10
21.760389
 20
13.279215
 42
0.194909
  0
VERTEX
  8
2
 10
21.656172
 20
13.362590
 42
0.088331
  0
VERTEX
  8
2
 10
21.610666
 20
13.364487
 42
-0.953466
  0
VERTEX
  8
2
 10
21.615029
 20
13.359961
 42
0.036937
  0
VERTEX
  8
2
 10
21.649758
 20
13.352969
 42
-0.213775
  0
VERTEX
  8
2
 10
21.732464
 20
13.280139
 42
-0.040272
  0
VERTEX
  8
2
 10
21.784518
 20
13.167627
 42
0.003601
  0
VERTEX
  8
2
 10
21.792456
 20
13.147743
 42
-0.110010
  0
VERTEX
  8
2
 10
21.799590
 20
13.119309
 42
-0.492886
  0
VERTEX
  8
2
 10
21.790636
 20
13.112003
 42
-0.107721
  0
VERTEX
  8
2
 10
21.744356
 20
13.138122
 42
0.001791
  0
VERTEX
  8
2
 10
21.727598
 20
13.150720
 42
-0.099152
  0
VERTEX
  8
2
 10
21.555164
 20
13.330522
 42
0.094136
  0
VERTEX
  8
2
 10
21.528307
 20
13.364995
 42
0.105232
  0
VERTEX
  8
2
 10
21.542336
 20
13.327317
 42
0.022064
  0
VERTEX
  8
2
 10
21.672254
 20
13.121727
 42
-0.003380
  0
VERTEX
  8
2
 10
21.712289
 20
13.061162
 42
-0.225384
  0
VERTEX
  8
2
 10
21.727320
 20
13.024286
 42
-0.182716
  0
VERTEX
  8
2
 10
21.693050
 20
13.045129
 42
-0.041458
  0
VERTEX
  8
2
 10
21.537526
 20
13.202256
 42
0.193265
  0
VERTEX
  8
2
 10
21.508666
 20
13.229913
 42
0.293058
  0
VERTEX
  8
2
 10
21.523096
 20
13.202256
 42
-0.065872
  0
VERTEX
  8
2
 10
21.712289
 20
12.920069
 42
-0.641028
  0
VERTEX
  8
2
 10
21.696120
 20
12.884985
 42
-0.261461
  0
VERTEX
  8
2
 10
21.651362
 20
12.916863
 42
0.092613
  0
VERTEX
  8
2
 10
21.553964
 20
13.034474
 42
0.161968
  0
VERTEX
  8
2
 10
21.425293
 20
13.096436
 42
0.341722
  0
VERTEX
  8
2
 10
21.285804
 20
12.979393
 42
0.224048
  0
VERTEX
  8
2
 10
21.275879
 20
12.935351
 42
0.152172
  0
VERTEX
  8
2
 10
21.298631
 20
12.972979
 42
0.000294
  0
VERTEX
  8
2
 10
21.299865
 20
12.976134
 42
-0.372961
  0
VERTEX
  8
2
 10
21.412467
 20
13.064369
 42
-0.179916
  0
VERTEX
  8
2
 10
21.541548
 20
12.981541
 42
-0.032415
  0
VERTEX
  8
2
 10
21.636427
 20
12.863311
 42
0.001348
  0
VERTEX
  8
2
 10
21.641743
 20
12.855936
 42
-0.110267
  0
VERTEX
  8
2
 10
21.662987
 20
12.816254
 42
-0.667352
  0
VERTEX
  8
2
 10
21.638536
 20
12.817457
 42
0.005307
  0
VERTEX
  8
2
 10
21.601156
 20
12.837018
 42
-0.021159
  0
VERTEX
  8
2
 10
21.468583
 20
12.910450
 42
0.219558
  0
VERTEX
  8
2
 10
21.427297
 20
12.929289
 42
0.117391
  0
VERTEX
  8
2
 10
21.460567
 20
12.902433
 42
-0.029159
  0
VERTEX
  8
2
 10
21.705876
 20
12.689190
 42
-0.385435
  0
VERTEX
  8
2
 10
21.713113
 20
12.666331
 42
-0.251508
  0
VERTEX
  8
2
 10
21.683429
 20
12.673157
 42
0.393493
  0
VERTEX
  8
2
 10
21.659433
 20
12.676358
 42
0.130813
  0
VERTEX
  8
2
 10
21.656699
 20
12.651643
 42
-0.126689
  0
VERTEX
  8
2
 10
21.651362
 20
12.612231
 42
-0.443270
  0
VERTEX
  8
2
 10
21.626912
 20
12.596999
 42
-0.103382
  0
VERTEX
  8
2
 10
21.590436
 20
12.634676
 42
0.418396
  0
VERTEX
  8
2
 10
21.551155
 20
12.653115
 42
0.105026
  0
VERTEX
  8
2
 10
21.516683
 20
12.609024
 42
-0.685198
  0
VERTEX
  8
2
 10
21.472726
 20
12.593696
 42
0.065883
  0
VERTEX
  8
2
 10
21.438119
 20
12.612231
 42
-0.933025
  0
VERTEX
  8
2
 10
21.420483
 20
12.583371
 42
0.335249
  0
VERTEX
  8
2
 10
21.532717
 20
12.570544
 42
-0.394765
  0
VERTEX
  8
2
 10
21.564755
 20
12.572874
 42
-0.090258
  0
VERTEX
  8
2
 10
21.586792
 20
12.536579
 42
0.004753
  0
VERTEX
  8
2
 10
21.593643
 20
12.522444
 42
0.439779
  0
VERTEX
  8
2
 10
21.621701
 20
12.502001
 42
0.176987
  0
VERTEX
  8
2
 10
21.644950
 20
12.541683
 42
-0.666602
  0
VERTEX
  8
2
 10
21.679422
 20
12.554511
 42
-0.077889
  0
VERTEX
  8
2
 10
21.737943
 20
12.490378
 42
-0.161253
  0
VERTEX
  8
2
 10
21.758022
 20
12.453818
 42
-0.227715
  0
VERTEX
  8
2
 10
21.736283
 20
12.457408
 42
0.035548
  0
VERTEX
  8
2
 10
21.712289
 20
12.464725
 42
0.594175
  0
VERTEX
  8
2
 10
21.689842
 20
12.450294
 42
0.228312
  0
VERTEX
  8
2
 10
21.715496
 20
12.416624
 42
0.000883
  0
VERTEX
  8
2
 10
21.721089
 20
12.413286
 42
-0.083983
  0
VERTEX
  8
2
 10
21.754850
 20
12.388602
 42
-0.415656
  0
VERTEX
  8
2
 10
21.750769
 20
12.358904
 42
0.635776
  0
VERTEX
  8
2
 10
21.761592
 20
12.329243
 42
0.132429
  0
VERTEX
  8
2
 10
21.818110
 20
12.323631
 42
-0.218814
  0
VERTEX
  8
2
 10
21.907896
 20
12.307597
 42
-0.723777
  0
VERTEX
  8
2
 10
21.899732
 20
12.290943
 42
-0.032800
  0
VERTEX
  8
2
 10
21.842579
 20
12.274567
 42
0.002613
  0
VERTEX
  8
2
 10
21.808489
 20
12.265911
 42
0.382392
  0
VERTEX
  8
2
 10
21.785792
 20
12.251381
 42
0.175221
  0
VERTEX
  8
2
 10
21.812097
 20
12.238655
 42
0.076234
  0
VERTEX
  8
2
 10
21.914308
 20
12.230639
 42
-0.264018
  0
VERTEX
  8
2
 10
21.980282
 20
12.215490
 42
0.031786
  0
VERTEX
  8
2
 10
22.020129
 20
12.188951
 42
0.267747
  0
VERTEX
  8
2
 10
22.072236
 20
12.173720
 42
0.217564
  0
VERTEX
  8
2
 10
22.061815
 20
12.221018
 42
-0.702439
  0
VERTEX
  8
2
 10
22.098692
 20
12.254287
 42
-0.271262
  0
VERTEX
  8
2
 10
22.174049
 20
12.198571
 42
0.167293
  0
VERTEX
  8
2
 10
22.319716
 20
12.093916
 42
-0.039220
  0
VERTEX
  8
2
 10
22.408135
 20
12.047858
 42
-0.046927
  0
VERTEX
  8
2
 10
22.465816
 20
11.999744
 42
0.389020
  0
VERTEX
  8
2
 10
22.517161
 20
11.980518
 42
-0.338819
  0
VERTEX
  8
2
 10
22.584079
 20
11.965517
 42
0.010629
  0
VERTEX
  8
2
 10
22.603740
 20
11.951658
 42
0.116315
  0
VERTEX
  8
2
 10
22.659456
 20
11.928411
 42
0.815562
  0
VERTEX
  8
2
 10
22.669478
 20
11.958072
 42
0.304645
  0
VERTEX
  8
2
 10
22.558847
 20
12.022206
 42
-0.151710
  0
VERTEX
  8
2
 10
22.512282
 20
12.033369
 42
-0.531126
  0
VERTEX
  8
2
 10
22.520367
 20
12.060685
 42
0.464802
  0
VERTEX
  8
2
 10
22.527582
 20
12.096560
 42
0.272441
  0
VERTEX
  8
2
 10
22.472268
 20
12.102372
 42
-0.471267
  0
VERTEX
  8
2
 10
22.420388
 20
12.130833
 42
0.090681
  0
VERTEX
  8
2
 10
22.376068
 20
12.188951
 42
-0.069856
  0
VERTEX
  8
2
 10
22.357658
 20
12.208641
 42
-0.551756
  0
VERTEX
  8
2
 10
22.358701
 20
12.217017
 42
-0.093015
  0
VERTEX
  8
2
 10
22.398656
 20
12.214013
 42
0.038543
  0
VERTEX
  8
2
 10
22.449821
 20
12.208192
 42
-0.211611
  0
VERTEX
  8
2
 10
22.500567
 20
12.187765
 42
0.185072
  0
VERTEX
  8
2
 10
22.542814
 20
12.168108
 42
-0.095395
  0
VERTEX
  8
2
 10
22.638212
 20
12.133942
 42
0.014842
  0
VERTEX
  8
2
 10
22.677493
 20
12.115197
 42
0.214199
  0
VERTEX
  8
2
 10
22.730403
 20
12.111791
 42
0.495337
  0
VERTEX
  8
2
 10
22.732508
 20
12.123992
 42
0.129852
  0
VERTEX
  8
2
 10
22.706354
 20
12.140851
 42
0.058304
  0
VERTEX
  8
2
 10
22.666143
 20
12.150953
 42
-0.253723
  0
VERTEX
  8
2
 10
22.594121
 20
12.192158
 42
0.311521
  0
VERTEX
  8
2
 10
22.530034
 20
12.237965
 42
-0.009639
  0
VERTEX
  8
2
 10
22.513954
 20
12.240258
 42
0.005320
  0
VERTEX
  8
2
 10
22.498934
 20
12.242544
 42
-0.336487
  0
VERTEX
  8
2
 10
22.427375
 20
12.285151
 42
0.182140
  0
VERTEX
  8
2
 10
22.395308
 20
12.331247
 42
0.426858
  0
VERTEX
  8
2
 10
22.353621
 20
12.326837
 42
-0.362128
  0
VERTEX
  8
2
 10
22.317375
 20
12.321114
 42
-0.054824
  0
VERTEX
  8
2
 10
22.272521
 20
12.347810
 42
0.015664
  0
VERTEX
  8
2
 10
22.251008
 20
12.362111
 42
0.326296
  0
VERTEX
  8
2
 10
22.215593
 20
12.359938
 42
-0.268857
  0
VERTEX
  8
2
 10
22.164428
 20
12.355697
 42
-0.556717
  0
VERTEX
  8
2
 10
22.144516
 20
12.389269
 42
-0.175371
  0
VERTEX
  8
2
 10
22.180461
 20
12.413418
 42
0.349821
  0
VERTEX
  8
2
 10
22.207053
 20
12.447939
 42
0.091138
  0
VERTEX
  8
2
 10
22.198119
 20
12.506197
 42
-0.009395
  0
VERTEX
  8
2
 10
22.227651
 20
12.530597
 42
-0.435751
  0
VERTEX
  8
2
 10
22.239353
 20
12.534063
 42
0.081084
  0
VERTEX
  8
2
 10
22.428128
 20
12.409281
 42
0.030194
  0
VERTEX
  8
2
 10
22.756533
 20
12.270172
 42
0.065627
  0
VERTEX
  8
2
 10
23.533672
 20
12.089544
 42
-0.040684
  0
VERTEX
  8
2
 10
23.600872
 20
12.081328
 42
-0.419039
  0
VERTEX
  8
2
 10
23.617901
 20
12.069682
 42
-0.129025
  0
VERTEX
  8
2
 10
23.530465
 20
12.041446
 42
0.145874
  0
VERTEX
  8
2
 10
23.476704
 20
12.018047
 42
0.355697
  0
VERTEX
  8
2
 10
23.470742
 20
11.984127
 42
0.217010
  0
VERTEX
  8
2
 10
23.610632
 20
11.929212
 42
-0.005667
  0
VERTEX
  8
2
 10
23.761956
 20
11.910869
 42
0.014065
  0
VERTEX
  8
2
 10
24.027497
 20
11.881112
 42
-0.060499
  0
VERTEX
  8
2
 10
24.068094
 20
11.875664
 42
0.917337
  0
VERTEX
  8
2
 10
24.071666
 20
11.865581
 42
-0.069210
  0
VERTEX
  8
2
 10
23.892818
 20
11.842632
 42
0.119945
  0
VERTEX
  8
2
 10
23.808659
 20
11.823269
 42
0.548020
  0
VERTEX
  8
2
 10
23.802956
 20
11.787832
 42
0.126084
  0
VERTEX
  8
2
 10
23.875053
 20
11.749331
 42
0.051062
  0
VERTEX
  8
2
 10
24.024290
 20
11.720779
 42
-0.005318
  0
VERTEX
  8
2
 10
24.122372
 20
11.708311
 42
0.031391
  0
VERTEX
  8
2
 10
24.970256
 20
11.634200
 42
-0.067923
  0
VERTEX
  8
2
 10
25.086489
 20
11.624102
 42
0.922785
  0
VERTEX
  8
2
 10
25.090201
 20
11.611474
 42
-0.068117
  0
VERTEX
  8
2
 10
25.024768
 20
11.595719
 42
-0.000665
  0
VERTEX
  8
2
 10
24.967205
 20
11.586867
 42
0.001896
  0
VERTEX
  8
2
 10
24.838782
 20
11.566860
 42
0.115465
  0
VERTEX
  8
2
 10
24.770148
 20
11.541260
 42
0.323187
  0
VERTEX
  8
2
 10
24.750753
 20
11.501469
 42
0.225401
  0
VERTEX
  8
2
 10
24.801026
 20
11.461505
 42
0.069948
  0
VERTEX
  8
2
 10
24.941396
 20
11.435388
 42
0.030550
  0
VERTEX
  8
2
 10
25.465229
 20
11.460942
 42
0.062157
  0
VERTEX
  8
2
 10
26.155792
 20
11.596929
 42
-0.464899
  0
VERTEX
  8
2
 10
26.176214
 20
11.589473
 42
-0.081969
  0
VERTEX
  8
2
 10
26.179413
 20
11.559123
 42
0.391974
  0
VERTEX
  8
2
 10
26.201612
 20
11.509140
 42
-0.907085
  0
VERTEX
  8
2
 10
26.216780
 20
11.473601
 42
-0.146054
  0
VERTEX
  8
2
 10
26.150307
 20
11.435388
 42
0.195987
  0
VERTEX
  8
2
 10
26.026850
 20
11.353617
 42
-0.497835
  0
VERTEX
  8
2
 10
25.913014
 20
11.332774
 42
0.334616
  0
VERTEX
  8
2
 10
25.812733
 20
11.312670
 42
-0.132853
  0
VERTEX
  8
2
 10
25.720614
 20
11.271847
 42
0.671558
  0
VERTEX
  8
2
 10
25.690567
 20
11.242658
 42
0.302492
  0
VERTEX
  8
2
 10
25.755887
 20
11.233367
 42
0.032441
  0
VERTEX
  8
2
 10
25.797092
 20
11.250816
 42
-0.192668
  0
VERTEX
  8
2
 10
25.896981
 20
11.271847
 42
0.214710
  0
VERTEX
  8
2
 10
26.007531
 20
11.288673
 42
-0.138955
  0
VERTEX
  8
2
 10
26.073347
 20
11.307121
 42
0.301416
  0
VERTEX
  8
2
 10
26.153706
 20
11.369474
 42
-0.027144
  0
VERTEX
  8
2
 10
26.169547
 20
11.393700
 42
-0.261203
  0
VERTEX
  8
2
 10
26.191993
 20
11.412139
 42
-0.184869
  0
VERTEX
  8
2
 10
26.195200
 20
11.377667
 42
0.613297
  0
VERTEX
  8
2
 10
26.210832
 20
11.365391
 42
0.091183
  0
VERTEX
  8
2
 10
26.250515
 20
11.382878
 42
0.109921
  0
VERTEX
  8
2
 10
26.329879
 20
11.457833
 42
-0.159979
  0
VERTEX
  8
2
 10
26.409906
 20
11.516542
 42
0.086461
  0
VERTEX
  8
2
 10
26.467765
 20
11.550826
 42
0.002076
  0
VERTEX
  8
2
 10
26.475213
 20
11.558349
 42
-0.435739
  0
VERTEX
  8
2
 10
26.517270
 20
11.571685
 42
0.017333
  0
VERTEX
  8
2
 10
26.551139
 20
11.563653
 42
0.268425
  0
VERTEX
  8
2
 10
26.614270
 20
11.576680
 42
0.343625
  0
VERTEX
  8
2
 10
26.618479
 20
11.614960
 42
-0.434254
  0
VERTEX
  8
2
 10
26.618479
 20
11.695126
 42
-0.378719
  0
VERTEX
  8
2
 10
26.660282
 20
11.681450
 42
0.157075
  0
VERTEX
  8
2
 10
26.705058
 20
11.656646
 42
0.580882
  0
VERTEX
  8
2
 10
26.734746
 20
11.688478
 42
-0.056366
  0
VERTEX
  8
2
 10
26.737125
 20
11.707953
 42
0.089777
  0
VERTEX
  8
2
 10
26.739265
 20
11.734094
 42
-0.082890
  0
VERTEX
  8
2
 10
26.743539
 20
11.778500
 42
-0.277417
  0
VERTEX
  8
2
 10
26.775605
 20
11.812570
 42
-0.705203
  0
VERTEX
  8
2
 10
26.788432
 20
11.781706
 42
0.225403
  0
VERTEX
  8
2
 10
26.789434
 20
11.724386
 42
0.397331
  0
VERTEX
  8
2
 10
26.839739
 20
11.722382
 42
0.310919
  0
VERTEX
  8
2
 10
26.862214
 20
11.775010
 42
-0.165519
  0
VERTEX
  8
2
 10
26.868599
 20
11.807360
 42
-0.268296
  0
VERTEX
  8
2
 10
26.914694
 20
11.812570
 42
-0.094325
  0
VERTEX
  8
2
 10
26.977625
 20
11.781706
 42
0.238081
  0
VERTEX
  8
2
 10
27.028414
 20
11.770509
 42
-0.147988
  0
VERTEX
  8
2
 10
27.080237
 20
11.765672
 42
0.305883
  0
VERTEX
  8
2
 10
27.121924
 20
11.764069
 42
0.434980
  0
VERTEX
  8
2
 10
27.105890
 20
11.786515
 42
-0.134313
  0
VERTEX
  8
2
 10
27.084594
 20
11.805175
 42
0.473152
  0
VERTEX
  8
2
 10
27.041757
 20
11.813772
 42
-0.442847
  0
VERTEX
  8
2
 10
26.987725
 20
11.828525
 42
0.122783
  0
VERTEX
  8
2
 10
26.964799
 20
11.849046
 42
-0.000893
  0
VERTEX
  8
2
 10
26.959542
 20
11.851396
 42
0.308343
  0
VERTEX
  8
2
 10
26.903871
 20
11.852253
 42
-0.379715
  0
VERTEX
  8
2
 10
26.872606
 20
11.853655
 42
-0.232238
  0
VERTEX
  8
2
 10
26.894251
 20
11.906765
 42
0.007957
  0
VERTEX
  8
2
 10
26.905266
 20
11.922233
 42
-0.051746
  0
VERTEX
  8
2
 10
27.009690
 20
12.041446
 42
0.063803
  0
VERTEX
  8
2
 10
27.044814
 20
12.082080
 42
-0.855617
  0
VERTEX
  8
2
 10
27.035745
 20
12.085136
 42
0.069235
  0
VERTEX
  8
2
 10
26.977625
 20
12.044651
 42
-0.029651
  0
VERTEX
  8
2
 10
26.894224
 20
11.975747
 42
0.608842
  0
VERTEX
  8
2
 10
26.884065
 20
11.987337
 42
-0.003066
  0
VERTEX
  8
2
 10
26.900992
 20
12.010180
 42
0.025174
  0
VERTEX
  8
2
 10
26.951971
 20
12.083132
 42
0.248052
  0
VERTEX
  8
2
 10
26.962393
 20
12.112393
 42
0.166634
  0
VERTEX
  8
2
 10
26.939144
 20
12.095958
 42
0.002456
  0
VERTEX
  8
2
 10
26.879327
 20
12.034688
 42
-0.002659
  0
VERTEX
  8
2
 10
26.804465
 20
11.958072
 42
-0.243524
  0
VERTEX
  8
2
 10
26.775595
 20
11.941368
 42
-0.382033
  0
VERTEX
  8
2
 10
26.777208
 20
11.962882
 42
0.018647
  0
VERTEX
  8
2
 10
26.787566
 20
11.984508
 42
-0.055398
  0
VERTEX
  8
2
 10
26.814085
 20
12.031825
 42
-0.462886
  0
VERTEX
  8
2
 10
26.799656
 20
12.047858
 42
0.021252
  0
VERTEX
  8
2
 10
26.717886
 20
11.948451
 42
0.585575
  0
VERTEX
  8
2
 10
26.695439
 20
11.961279
 42
-0.070896
  0
VERTEX
  8
2
 10
26.794844
 20
12.131232
 42
0.112378
  0
VERTEX
  8
2
 10
26.810227
 20
12.151724
 42
0.605707
  0
VERTEX
  8
2
 10
26.804865
 20
12.158087
 42
0.134821
  0
VERTEX
  8
2
 10
26.769192
 20
12.144058
 42
0.031252
  0
VERTEX
  8
2
 10
26.653751
 20
12.028618
 42
-0.617770
  0
VERTEX
  8
2
 10
26.635314
 20
12.022606
 42
-0.228927
  0
VERTEX
  8
2
 10
26.640925
 20
12.047858
 42
0.027148
  0
VERTEX
  8
2
 10
26.681867
 20
12.138780
 42
-0.008906
  0
VERTEX
  8
2
 10
26.708265
 20
12.200175
 42
0.207226
  0
VERTEX
  8
2
 10
26.718665
 20
12.243400
 42
0.231874
  0
VERTEX
  8
2
 10
26.692232
 20
12.208192
 42
-0.046201
  0
VERTEX
  8
2
 10
26.628099
 20
12.107181
 42
-0.231249
  0
VERTEX
  8
2
 10
26.600208
 20
12.090206
 42
-0.400182
  0
VERTEX
  8
2
 10
26.586412
 20
12.116803
 42
-0.050843
  0
VERTEX
  8
2
 10
26.685818
 20
12.360508
 42
0.216773
  0
VERTEX
  8
2
 10
26.697644
 20
12.402395
 42
0.263177
  0
VERTEX
  8
2
 10
26.669785
 20
12.368525
 42
-0.013781
  0
VERTEX
  8
2
 10
26.503272
 20
12.093650
 42
0.518440
  0
VERTEX
  8
2
 10
26.488294
 20
12.099246
 42
-0.052631
  0
VERTEX
  8
2
 10
26.512660
 20
12.166504
 42
0.236162
  0
VERTEX
  8
2
 10
26.524685
 20
12.215606
 42
0.400640
  0
VERTEX
  8
2
 10
26.503039
 20
12.198571
 42
0.007850
  0
VERTEX
  8
2
 10
26.487046
 20
12.163665
 42
-0.001228
  0
VERTEX
  8
2
 10
26.470972
 20
12.128025
 42
-0.268916
  0
VERTEX
  8
2
 10
26.450530
 20
12.103975
 42
-0.307776
  0
VERTEX
  8
2
 10
26.442112
 20
12.128025
 42
-0.077487
  0
VERTEX
  8
2
 10
26.458146
 20
12.214606
 42
0.317178
  0
VERTEX
  8
2
 10
26.457344
 20
12.246872
 42
0.417300
  0
VERTEX
  8
2
 10
26.442112
 20
12.237051
 42
0.004519
  0
VERTEX
  8
2
 10
26.416460
 20
12.169711
 42
0.903511
  0
VERTEX
  8
2
 10
26.377979
 20
12.179332
 42
-0.061305
  0
VERTEX
  8
2
 10
26.390806
 20
12.267514
 42
0.282156
  0
VERTEX
  8
2
 10
26.389203
 20
12.289159
 42
0.421633
  0
VERTEX
  8
2
 10
26.377979
 20
12.281944
 42
0.072007
  0
VERTEX
  8
2
 10
26.358740
 20
12.227431
 42
0.973604
  0
VERTEX
  8
2
 10
26.346314
 20
12.219013
 42
-0.098986
  0
VERTEX
  8
2
 10
26.336293
 20
12.246671
 42
-0.043048
  0
VERTEX
  8
2
 10
26.337474
 20
12.304562
 42
0.015177
  0
VERTEX
  8
2
 10
26.339499
 20
12.346078
 42
-0.591640
  0
VERTEX
  8
2
 10
26.320260
 20
12.352492
 42
0.030386
  0
VERTEX
  8
2
 10
26.312414
 20
12.326243
 42
-0.027245
  0
VERTEX
  8
2
 10
26.301019
 20
12.288358
 42
0.943225
  0
VERTEX
  8
2
 10
26.289950
 20
12.283554
 42
-0.051328
  0
VERTEX
  8
2
 10
26.281058
 20
12.311052
 42
0.004163
  0
VERTEX
  8
2
 10
26.278574
 20
12.320424
 42
-0.030854
  0
VERTEX
  8
2
 10
26.265963
 20
12.403174
 42
0.008546
  0
VERTEX
  8
2
 10
26.259333
 20
12.455104
 42
0.231268
  0
VERTEX
  8
2
 10
26.248904
 20
12.483008
 42
0.197787
  0
VERTEX
  8
2
 10
26.230472
 20
12.448692
 42
0.053670
  0
VERTEX
  8
2
 10
26.207790
 20
12.354443
 42
-0.000595
  0
VERTEX
  8
2
 10
26.204819
 20
12.336458
 42
-0.179157
  0
VERTEX
  8
2
 10
26.191993
 20
12.295973
 42
-0.193037
  0
VERTEX
  8
2
 10
26.179167
 20
12.320424
 42
0.914235
  0
VERTEX
  8
2
 10
26.162332
 20
12.327639
 42
0.117113
  0
VERTEX
  8
2
 10
26.150307
 20
12.281944
 42
0.100404
  0
VERTEX
  8
2
 10
26.163420
 20
12.210501
 42
-0.040919
  0
VERTEX
  8
2
 10
26.175960
 20
12.163299
 42
-0.099952
  0
VERTEX
  8
2
 10
26.175559
 20
12.116000
 42
0.980357
  0
VERTEX
  8
2
 10
26.163133
 20
12.111992
 42
0.048835
  0
VERTEX
  8
2
 10
26.144807
 20
12.133503
 42
-0.074509
  0
VERTEX
  8
2
 10
26.107017
 20
12.182537
 42
0.236522
  0
VERTEX
  8
2
 10
26.089380
 20
12.204584
 42
0.219702
  0
VERTEX
  8
2
 10
26.086174
 20
12.176125
 42
0.126616
  0
VERTEX
  8
2
 10
26.140687
 20
12.063892
 42
-0.264455
  0
VERTEX
  8
2
 10
26.148303
 20
12.036034
 42
-0.547114
  0
VERTEX
  8
2
 10
26.124654
 20
12.033428
 42
-0.026174
  0
VERTEX
  8
2
 10
26.045089
 20
12.096485
 42
0.004358
  0
VERTEX
  8
2
 10
26.018833
 20
12.118406
 42
0.220263
  0
VERTEX
  8
2
 10
25.973631
 20
12.141711
 42
0.190887
  0
VERTEX
  8
2
 10
26.012419
 20
12.095958
 42
-0.031475
  0
VERTEX
  8
2
 10
26.082967
 20
12.028618
 42
-0.109789
  0
VERTEX
  8
2
 10
26.096895
 20
12.008424
 42
-0.556864
  0
VERTEX
  8
2
 10
26.092140
 20
12.001226
 42
-0.144554
  0
VERTEX
  8
2
 10
26.054107
 20
12.015792
 42
0.012384
  0
VERTEX
  8
2
 10
25.743061
 20
12.172918
 42
0.534088
  0
VERTEX
  8
2
 10
25.716205
 20
12.170914
 42
0.284015
  0
VERTEX
  8
2
 10
25.739854
 20
12.147265
 42
-0.018071
  0
VERTEX
  8
2
 10
25.994523
 20
11.974883
 42
0.005875
  0
VERTEX
  8
2
 10
26.092586
 20
11.906765
 42
-0.269905
  0
VERTEX
  8
2
 10
26.114231
 20
11.882315
 42
-0.386690
  0
VERTEX
  8
2
 10
26.092586
 20
11.884319
 42
0.018088
  0
VERTEX
  8
2
 10
25.827847
 20
11.956793
 42
-0.005195
  0
VERTEX
  8
2
 10
25.736647
 20
11.980518
 42
0.248693
  0
VERTEX
  8
2
 10
25.705984
 20
11.980719
 42
0.229765
  0
VERTEX
  8
2
 10
25.746268
 20
11.958072
 42
-0.018377
  0
VERTEX
  8
2
 10
26.028454
 20
11.829806
 42
-0.291756
  0
VERTEX
  8
2
 10
26.052103
 20
11.806958
 42
-0.168655
  0
VERTEX
  8
2
 10
25.996387
 20
11.820186
 42
0.104214
  0
VERTEX
  8
2
 10
25.819898
 20
11.815782
 42
-0.001454
  0
VERTEX
  8
2
 10
25.807194
 20
11.813772
 42
0.261110
  0
VERTEX
  8
2
 10
25.777933
 20
11.801747
 42
0.259955
  0
VERTEX
  8
2
 10
25.803987
 20
11.794532
 42
-0.031636
  0
VERTEX
  8
2
 10
26.095793
 20
11.743226
 42
-0.068583
  0
VERTEX
  8
2
 10
26.120394
 20
11.733005
 42
-0.721016
  0
VERTEX
  8
2
 10
26.121848
 20
11.726391
 42
-0.113284
  0
VERTEX
  8
2
 10
26.082967
 20
11.723986
 42
0.073213
  0
VERTEX
  8
2
 10
25.900188
 20
11.672679
 42
0.181622
  0
VERTEX
  8
2
 10
25.872530
 20
11.653439
 42
0.235850
  0
VERTEX
  8
2
 10
25.909807
 20
11.653440
 42
0.000058
  0
VERTEX
  8
2
 10
25.914409
 20
11.654304
 42
-0.055523
  0
VERTEX
  8
2
 10
26.060521
 20
11.669474
 42
-0.208699
  0
VERTEX
  8
2
 10
26.128222
 20
11.632887
 42
-0.059223
  0
VERTEX
  8
2
 10
25.846540
 20
11.547174
 42
-0.025703
  0
VERTEX
  8
2
 10
25.496123
 20
11.497195
 42
-0.041909
  0
VERTEX
  8
2
 10
24.934982
 20
11.483486
 42
-0.069367
  0
VERTEX
  8
2
 10
24.875925
 20
11.496404
 42
-0.328017
  0
VERTEX
  8
2
 10
24.859771
 20
11.513095
 42
-0.255787
  0
VERTEX
  8
2
 10
24.918147
 20
11.538800
 42
0.024581
  0
VERTEX
  8
2
 10
25.068485
 20
11.564366
 42
-0.006855
  0
VERTEX
  8
2
 10
25.146621
 20
11.579686
 42
0.153981
  0
VERTEX
  8
2
 10
25.194769
 20
11.604199
 42
0.381193
  0
VERTEX
  8
2
 10
25.200892
 20
11.643174
 42
0.186494
  0
VERTEX
  8
2
 10
25.128572
 20
11.675258
 42
0.057393
  0
VERTEX
  8
2
 10
24.941396
 20
11.679093
 42
-0.033651
  0
VERTEX
  8
2
 10
24.452380
 20
11.711962
 42
-0.013285
  0
VERTEX
  8
2
 10
24.030704
 20
11.768879
 42
-0.106447
  0
VERTEX
  8
2
 10
23.939555
 20
11.797175
 42
-0.633307
  0
VERTEX
  8
2
 10
23.943012
 20
11.807148
 42
-0.076549
  0
VERTEX
  8
2
 10
23.969778
 20
11.813772
 42
-0.006911
  0
VERTEX
  8
2
 10
24.223104
 20
11.839425
 42
0.162020
  0
VERTEX
  8
2
 10
24.269951
 20
11.853655
 42
0.515338
  0
VERTEX
  8
2
 10
24.258778
 20
11.876303
 42
0.105566
  0
VERTEX
  8
2
 10
24.075597
 20
11.913179
 42
-0.013983
  0
VERTEX
  8
2
 10
23.810740
 20
11.939091
 42
0.010917
  0
VERTEX
  8
2
 10
23.658732
 20
11.954865
 42
-0.051495
  0
VERTEX
  8
2
 10
23.584215
 20
11.965369
 42
-0.268523
  0
VERTEX
  8
2
 10
23.557043
 20
11.982908
 42
-0.283852
  0
VERTEX
  8
2
 10
23.583923
 20
12.003260
 42
-0.048808
  0
VERTEX
  8
2
 10
23.671558
 20
12.022206
 42
0.143854
  0
VERTEX
  8
2
 10
23.745915
 20
12.047196
 42
0.541017
  0
VERTEX
  8
2
 10
23.736766
 20
12.080830
 42
0.124959
  0
VERTEX
  8
2
 10
23.517639
 20
12.128025
 42
-0.070351
  0
VERTEX
  8
2
 10
22.766009
 20
12.292747
 42
-0.033441
  0
VERTEX
  8
2
 10
22.441832
 20
12.429780
 42
-0.099934
  0
VERTEX
  8
2
 10
22.262476
 20
12.556422
 42
-0.406674
  0
VERTEX
  8
2
 10
22.267119
 20
12.563321
 42
0.002320
  0
VERTEX
  8
2
 10
22.270026
 20
12.566014
 42
-0.002618
  0
VERTEX
  8
2
 10
22.338374
 20
12.618335
 42
0.014327
  0
VERTEX
  8
2
 10
22.616950
 20
12.839903
  0
VERTEX
  8
2
 10
27.250187
 20
12.839903
 42
0.055076
  0
VERTEX
  8
2
 10
27.299108
 20
12.843376
 42
0.781049
  0
VERTEX
  8
2
 10
27.305450
 20
12.852366
 42
0.072707
  0
VERTEX
  8
2
 10
27.250362
 20
12.878316
  0
VERTEX
  8
2
 10
27.250362
 20
12.878316
  0
VERTEX
  8
2
 10
27.250187
 20
12.878383
  0
SEQEND
  0
POLYLINE
  8
2
 66
1
 70
1
  0
VERTEX
  8
2
 10
23.576962
 20
13.588658
 42
-0.196227
  0
VERTEX
  8
2
 10
23.580971
 20
13.601485
 42
-0.759677
  0
VERTEX
  8
2
 10
23.584979
 20
13.595072
  0
VERTEX
  8
2
 10
23.584979
 20
13.521318
 42
0.336592
  0
VERTEX
  8
2
 10
23.576962
 20
13.519715
 42
-0.021925
  0
VERTEX
  8
2
 10
23.576700
 20
13.573299
  0
VERTEX
  8
2
 10
23.576700
 20
13.573299
 42
0.004603
  0
SEQEND
  0
POLYLINE
  8
2
 66
1
 70
1
  0
VERTEX
  8
2
 10
23.261999
 20
13.748111
 42
0.067774
  0
VERTEX
  8
2
 10
23.016654
 20
13.984957
  0
VERTEX
  8
2
 10
23.024792
 20
13.993004
 42
-0.108548
  0
VERTEX
  8
2
 10
23.114335
 20
13.943812
 42
0.010958
  0
VERTEX
  8
2
 10
23.143672
 20
13.922657
 42
-0.489034
  0
VERTEX
  8
2
 10
23.150751
 20
13.933511
 42
-0.017618
  0
VERTEX
  8
2
 10
23.118420
 20
13.957015
 42
0.015482
  0
VERTEX
  8
2
 10
23.085465
 20
13.981087
 42
-0.663125
  0
VERTEX
  8
2
 10
23.089600
 20
13.987864
 42
-0.098420
  0
VERTEX
  8
2
 10
23.167799
 20
13.946803
 42
0.035568
  0
VERTEX
  8
2
 10
23.212225
 20
13.918689
 42
-0.628349
  0
VERTEX
  8
2
 10
23.219699
 20
13.925932
 42
0.006932
  0
VERTEX
  8
2
 10
23.201032
 20
13.938637
 42
-0.063132
  0
VERTEX
  8
2
 10
23.133292
 20
13.992742
 42
-0.650929
  0
VERTEX
  8
2
 10
23.140071
 20
14.002169
 42
-0.077718
  0
VERTEX
  8
2
 10
23.233740
 20
13.955613
 42
0.034794
  0
VERTEX
  8
2
 10
23.290189
 20
13.923350
 42
0.750892
  0
VERTEX
  8
2
 10
23.296079
 20
13.929265
 42
0.102421
  0
VERTEX
  8
2
 10
23.268774
 20
13.949925
 42
-0.090288
  0
VERTEX
  8
2
 10
23.242858
 20
13.968862
 42
-0.561057
  0
VERTEX
  8
2
 10
23.247986
 20
13.978681
 42
-0.078466
  0
VERTEX
  8
2
 10
23.339749
 20
13.921957
  0
VERTEX
  8
2
 10
23.339749
 20
13.921957
 42
-0.011769
  0
VERTEX
  8
2
 10
23.261999
 20
13.748111
  0
VERTEX
  8
2
 10
23.261999
 20
13.748111
  0
VERTEX
  8
2
 10
23.261999
 20
13.748111
  0
SEQEND
  0
POLYLINE
  8
2
 66
1
 70
1
  0
VERTEX
  8
2
 10
22.959447
 20
14.302239
 42
0.905585
  0
VERTEX
  8
2
 10
22.961282
 20
14.312458
 42
-0.127899
  0
VERTEX
  8
2
 10
23.044293
 20
14.301418
 42
-0.342337
  0
VERTEX
  8
2
 10
23.002857
 20
14.285415
  0
VERTEX
  8
2
 10
23.002857
 20
14.285415
 42
-0.120427
  0
SEQEND
  0
POLYLINE
  8
2
 66
1
 70
1
  0
VERTEX
  8
2
 10
22.999274
 20
14.267974
 42
-0.152939
  0
VERTEX
  8
2
 10
22.952566
 20
14.276633
 42
0.002496
  0
VERTEX
  8
2
 10
22.945678
 20
14.279486
 42
0.595749
  0
VERTEX
  8
2
 10
22.950761
 20
14.286285
 42
-0.062817
  0
VERTEX
  8
2
 10
22.998000
 20
14.276476
  0
VERTEX
  8
2
 10
22.998000
 20
14.276476
 42
0.496029
  0
SEQEND
  0
POLYLINE
  8
2
 66
1
 70
1
  0
VERTEX
  8
2
 10
23.063140
 20
14.352729
 42
0.016770
  0
VERTEX
  8
2
 10
23.023051
 20
14.358976
 42
-0.001684
  0
VERTEX
  8
2
 10
23.021143
 20
14.359224
 42
-0.539920
  0
VERTEX
  8
2
 10
23.015021
 20
14.362363
 42
-0.113075
  0
VERTEX
  8
2
 10
23.025397
 20
14.367036
 42
-0.075459
  0
VERTEX
  8
2
 10
23.126646
 20
14.379393
 42
-0.462840
  0
VERTEX
  8
2
 10
23.124572
 20
14.386504
 42
0.030757
  0
VERTEX
  8
2
 10
23.045914
 20
14.391844
 42
0.365999
  0
VERTEX
  8
2
 10
23.042793
 20
14.399232
 42
0.000703
  0
VERTEX
  8
2
 10
23.046267
 20
14.400732
 42
-0.125887
  0
VERTEX
  8
2
 10
23.203500
 20
14.431951
 42
0.036910
  0
VERTEX
  8
2
 10
23.120858
 20
14.366313
 42
-0.025574
  0
VERTEX
  8
2
 10
23.052371
 20
14.310229
 42
0.055691
  0
VERTEX
  8
2
 10
23.013431
 20
14.324552
 42
-0.009049
  0
VERTEX
  8
2
 10
22.996885
 20
14.329665
 42
0.487246
  0
VERTEX
  8
2
 10
22.997996
 20
14.339342
 42
0.040004
  0
VERTEX
  8
2
 10
23.064764
 20
14.343933
 42
0.355986
  0
VERTEX
  8
2
 10
23.077472
 20
14.348030
  0
VERTEX
  8
2
 10
23.077472
 20
14.348030
 42
0.104055
  0
SEQEND
  0
POLYLINE
  8
2
 66
1
 70
1
  0
VERTEX
  8
2
 10
23.178626
 20
14.272256
 42
-0.152952
  0
VERTEX
  8
2
 10
23.206108
 20
14.311001
 42
0.002496
  0
VERTEX
  8
2
 10
23.211592
 20
14.316053
 42
0.595695
  0
VERTEX
  8
2
 10
23.215625
 20
14.308583
 42
-0.062803
  0
VERTEX
  8
2
 10
23.186876
 20
14.269837
  0
VERTEX
  8
2
 10
23.186876
 20
14.269837
 42
0.496006
  0
SEQEND
  0
POLYLINE
  8
2
 66
1
 70
1
  0
VERTEX
  8
2
 10
23.138243
 20
14.262168
 42
-0.010779
  0
VERTEX
  8
2
 10
23.073944
 20
14.262569
 42
0.000434
  0
VERTEX
  8
2
 10
23.096862
 20
14.283108
 42
-0.045577
  0
VERTEX
  8
2
 10
23.342696
 20
14.478088
 42
0.456859
  0
VERTEX
  8
2
 10
23.348058
 20
14.475726
 42
0.016913
  0
VERTEX
  8
2
 10
23.262749
 20
14.386409
  0
VERTEX
  8
2
 10
23.262749
 20
14.386409
 42
-0.034984
  0
SEQEND
  0
POLYLINE
  8
2
 66
1
 70
1
  0
VERTEX
  8
2
 10
23.196219
 20
14.263049
 42
-0.063911
  0
VERTEX
  8
2
 10
23.255528
 20
14.331118
 42
-0.100168
  0
VERTEX
  8
2
 10
23.272626
 20
14.346454
 42
-0.196266
  0
VERTEX
  8
2
 10
23.263904
 20
14.328921
 42
-0.021589
  0
VERTEX
  8
2
 10
23.240272
 20
14.293018
 42
0.021589
  0
VERTEX
  8
2
 10
23.216640
 20
14.257115
  0
VERTEX
  8
2
 10
23.216640
 20
14.257115
 42
-0.634138
  0
SEQEND
  0
POLYLINE
  8
2
 66
1
 70
1
  0
VERTEX
  8
2
 10
23.293499
 20
14.346329
 42
-0.090799
  0
VERTEX
  8
2
 10
23.305591
 20
14.360013
 42
-0.255896
  0
VERTEX
  8
2
 10
23.299225
 20
14.344799
 42
0.028188
  0
VERTEX
  8
2
 10
23.268780
 20
14.285681
 42
-0.000361
  0
VERTEX
  8
2
 10
23.265185
 20
14.278108
 42
-0.400241
  0
VERTEX
  8
2
 10
23.271083
 20
14.276783
 42
0.029769
  0
VERTEX
  8
2
 10
23.312421
 20
14.328797
 42
-0.029977
  0
VERTEX
  8
2
 10
23.350565
 20
14.376882
 42
-0.183283
  0
VERTEX
  8
2
 10
23.362553
 20
14.386582
 42
-0.373800
  0
VERTEX
  8
2
 10
23.359247
 20
14.376237
 42
0.056754
  0
VERTEX
  8
2
 10
23.289645
 20
14.261707
 42
-0.001160
  0
VERTEX
  8
2
 10
23.281015
 20
14.244785
 42
0.087908
  0
VERTEX
  8
2
 10
23.254646
 20
14.248217
 42
-0.087908
  0
VERTEX
  8
2
 10
23.228276
 20
14.251650
 42
0.017451
  0
VERTEX
  8
2
 10
23.269613
 20
14.311054
  0
VERTEX
  8
2
 10
23.269613
 20
14.311054
 42
-0.005890
  0
SEQEND
  0
POLYLINE
  8
2
 66
1
 70
1
  0
VERTEX
  8
2
 10
23.219100
 20
14.440988
 42
0.159075
  0
VERTEX
  8
2
 10
23.072386
 20
14.424388
 42
0.257863
  0
VERTEX
  8
2
 10
23.070514
 20
14.430960
 42
0.024519
  0
VERTEX
  8
2
 10
23.236136
 20
14.497409
 42
-0.026389
  0
VERTEX
  8
2
 10
23.407556
 20
14.565674
 42
-0.000386
  0
VERTEX
  8
2
 10
23.394709
 20
14.558941
  0
VERTEX
  8
2
 10
23.394709
 20
14.558941
 42
0.083500
  0
SEQEND
  0
POLYLINE
  8
2
 66
1
 70
1
  0
VERTEX
  8
2
 10
23.397624
 20
14.046447
 42
-0.006541
  0
VERTEX
  8
2
 10
23.255222
 20
14.068046
 42
-0.143484
  0
VERTEX
  8
2
 10
23.246509
 20
14.073888
 42
-0.609711
  0
VERTEX
  8
2
 10
23.253833
 20
14.075057
 42
0.010957
  0
VERTEX
  8
2
 10
23.310998
 20
14.067544
 42
-0.003999
  0
VERTEX
  8
2
 10
23.388829
 20
14.057676
 42
0.989198
  0
VERTEX
  8
2
 10
23.390483
 20
14.063899
 42
0.020706
  0
VERTEX
  8
2
 10
23.355269
 20
14.078073
 42
-0.013199
  0
VERTEX
  8
2
 10
23.328735
 20
14.088462
 42
0.848261
  0
VERTEX
  8
2
 10
23.328821
 20
14.094635
 42
-0.029667
  0
VERTEX
  8
2
 10
23.384765
 20
14.087208
 42
0.001347
  0
VERTEX
  8
2
 10
23.396950
 20
14.085128
 42
-0.509963
  0
VERTEX
  8
2
 10
23.400047
 20
14.092618
 42
0.035834
  0
VERTEX
  8
2
 10
23.352610
 20
14.102448
 42
-0.036802
  0
VERTEX
  8
2
 10
23.303499
 20
14.112710
 42
-0.641505
  0
VERTEX
  8
2
 10
23.307978
 20
14.120472
 42
-0.052957
  0
VERTEX
  8
2
 10
23.426808
 20
14.113240
 42
-0.004537
  0
VERTEX
  8
2
 10
23.397624
 20
14.046447
  0
VERTEX
  8
2
 10
23.397624
 20
14.046447
  0
VERTEX
  8
2
 10
23.397624
 20
14.046447
  0
SEQEND
  0
POLYLINE
  8
2
 66
1
 70
1
  0
VERTEX
  8
2
 10
23.443886
 20
14.347033
 42
-0.045885
  0
VERTEX
  8
2
 10
23.435434
 20
14.322639
 42
0.032797
  0
VERTEX
  8
2
 10
23.419835
 20
14.278090
 42
0.339988
  0
VERTEX
  8
2
 10
23.418633
 20
14.255242
 42
0.125396
  0
VERTEX
  8
2
 10
23.431860
 20
14.268469
 42
0.027697
  0
VERTEX
  8
2
 10
23.450699
 20
14.301268
 42
-0.027610
  0
VERTEX
  8
2
 10
23.479160
 20
14.350240
 42
-0.167119
  0
VERTEX
  8
2
 10
23.498912
 20
14.368228
 42
-0.437988
  0
VERTEX
  8
2
 10
23.495193
 20
14.347033
 42
-0.020683
  0
VERTEX
  8
2
 10
23.477252
 20
14.314801
 42
0.023652
  0
VERTEX
  8
2
 10
23.463125
 20
14.289314
 42
-0.525374
  0
VERTEX
  8
2
 10
23.471543
 20
14.283301
 42
0.071202
  0
VERTEX
  8
2
 10
23.511226
 20
14.327794
 42
-0.130618
  0
VERTEX
  8
2
 10
23.529240
 20
14.345823
 42
-0.497324
  0
VERTEX
  8
2
 10
23.538955
 20
14.341667
 42
-0.186742
  0
VERTEX
  8
2
 10
23.527260
 20
14.292519
 42
-0.035904
  0
VERTEX
  8
2
 10
23.455910
 20
14.175476
 42
-0.065643
  0
VERTEX
  8
2
 10
23.400073
 20
14.206793
 42
0.040564
  0
VERTEX
  8
2
 10
23.341272
 20
14.241214
  0
VERTEX
  8
2
 10
23.341272
 20
14.241214
 42
-0.234887
  0
VERTEX
  8
2
 10
23.320936
 20
14.241619
 42
-0.209490
  0
VERTEX
  8
2
 10
23.326125
 20
14.277013
 42
0.696607
  0
VERTEX
  8
2
 10
23.342074
 20
14.274885
 42
0.170136
  0
VERTEX
  8
2
 10
23.347524
 20
14.259520
 42
0.220386
  0
VERTEX
  8
2
 10
23.357306
 20
14.292519
 42
-0.152836
  0
VERTEX
  8
2
 10
23.374595
 20
14.329523
 42
0.816704
  0
VERTEX
  8
2
 10
23.386167
 20
14.327794
 42
0.006067
  0
VERTEX
  8
2
 10
23.384162
 20
14.314567
 42
-0.030472
  0
VERTEX
  8
2
 10
23.373339
 20
14.260454
 42
0.069621
  0
VERTEX
  8
2
 10
23.370396
 20
14.241853
 42
0.874884
  0
VERTEX
  8
2
 10
23.373840
 20
14.239710
 42
0.097990
  0
VERTEX
  8
2
 10
23.386967
 20
14.260454
 42
-0.007292
  0
VERTEX
  8
2
 10
23.399365
 20
14.286745
 42
0.006826
  0
VERTEX
  8
2
 10
23.424646
 20
14.340621
 42
-0.229429
  0
VERTEX
  8
2
 10
23.440278
 20
14.360662
  0
VERTEX
  8
2
 10
23.440278
 20
14.360662
 42
-0.419307
  0
SEQEND
  0
POLYLINE
  8
2
 66
1
 70
1
  0
VERTEX
  8
2
 10
23.161315
 20
14.857801
 42
0.080456
  0
VERTEX
  8
2
 10
23.170442
 20
14.871603
 42
0.000090
  0
VERTEX
  8
2
 10
23.185023
 20
14.869743
 42
-0.013037
  0
VERTEX
  8
2
 10
23.286907
 20
14.855365
 42
0.261237
  0
VERTEX
  8
2
 10
23.285143
 20
14.848949
 42
-0.013666
  0
VERTEX
  8
2
 10
23.226893
 20
14.848338
 42
0.009189
  0
VERTEX
  8
2
 10
23.152414
 20
14.847826
 42
-0.046494
  0
VERTEX
  8
2
 10
23.155940
 20
14.851599
  0
VERTEX
  8
2
 10
23.155940
 20
14.851599
 42
0.066736
  0
SEQEND
  0
POLYLINE
  8
2
 66
1
 70
1
  0
VERTEX
  8
2
 10
23.080219
 20
14.678249
 42
0.147818
  0
VERTEX
  8
2
 10
23.097749
 20
14.689324
 42
0.037025
  0
VERTEX
  8
2
 10
23.075132
 20
14.681364
 42
0.001288
  0
VERTEX
  8
2
 10
23.057460
 20
14.674360
 42
-0.020915
  0
VERTEX
  8
2
 10
22.994490
 20
14.650971
 42
0.496649
  0
VERTEX
  8
2
 10
22.989557
 20
14.653774
 42
-0.056228
  0
VERTEX
  8
2
 10
23.100282
 20
14.735262
 42
0.003707
  0
VERTEX
  8
2
 10
23.129858
 20
14.753975
 42
0.194192
  0
VERTEX
  8
2
 10
23.141374
 20
14.764786
 42
0.156781
  0
VERTEX
  8
2
 10
23.125635
 20
14.759439
 42
0.013752
  0
VERTEX
  8
2
 10
23.079089
 20
14.731975
 42
-0.020051
  0
VERTEX
  8
2
 10
23.025203
 20
14.700639
 42
0.517712
  0
VERTEX
  8
2
 10
23.018794
 20
14.702714
 42
0.004074
  0
VERTEX
  8
2
 10
23.142856
 20
14.835906
  0
VERTEX
  8
2
 10
23.144285
 20
14.837457
 42
-0.026729
  0
VERTEX
  8
2
 10
23.297289
 20
14.824136
 42
-0.104602
  0
VERTEX
  8
2
 10
23.310043
 20
14.820384
 42
-0.326329
  0
VERTEX
  8
2
 10
23.300449
 20
14.817317
 42
0.055567
  0
VERTEX
  8
2
 10
23.151021
 20
14.794104
 42
-0.417080
  0
VERTEX
  8
2
 10
23.151236
 20
14.789074
 42
0.021504
  0
VERTEX
  8
2
 10
23.232758
 20
14.788089
 42
-0.024225
  0
VERTEX
  8
2
 10
23.332732
 20
14.786468
 42
0.538436
  0
VERTEX
  8
2
 10
23.336557
 20
14.779472
 42
-0.076401
  0
VERTEX
  8
2
 10
23.289004
 20
14.772031
 42
0.153438
  0
VERTEX
  8
2
 10
23.202540
 20
14.748262
 42
-0.351529
  0
VERTEX
  8
2
 10
23.205350
 20
14.742054
 42
0.012075
  0
VERTEX
  8
2
 10
23.224831
 20
14.745806
 42
-0.117256
  0
VERTEX
  8
2
 10
23.380206
 20
14.750015
 42
0.892405
  0
VERTEX
  8
2
 10
23.386119
 20
14.740504
 42
-0.012187
  0
VERTEX
  8
2
 10
23.354374
 20
14.733925
 42
0.044326
  0
VERTEX
  8
2
 10
23.249511
 20
14.707382
 42
-0.385838
  0
VERTEX
  8
2
 10
23.250372
 20
14.699396
 42
0.019736
  0
VERTEX
  8
2
 10
23.320085
 20
14.704586
 42
-0.016508
  0
VERTEX
  8
2
 10
23.379451
 20
14.709243
 42
-0.123263
  0
VERTEX
  8
2
 10
23.412765
 20
14.706421
 42
-0.052856
  0
VERTEX
  8
2
 10
23.381788
 20
14.699822
 42
-0.000143
  0
VERTEX
  8
2
 10
23.376638
 20
14.698958
 42
0.052360
  0
VERTEX
  8
2
 10
23.268012
 20
14.673414
 42
-0.412696
  0
VERTEX
  8
2
 10
23.269724
 20
14.666854
 42
0.020081
  0
VERTEX
  8
2
 10
23.335185
 20
14.673477
 42
-0.031997
  0
VERTEX
  8
2
 10
23.423164
 20
14.681250
 42
0.786555
  0
VERTEX
  8
2
 10
23.428403
 20
14.674714
 42
-0.092992
  0
VERTEX
  8
2
 10
23.301424
 20
14.642120
 42
-0.011819
  0
VERTEX
  8
2
 10
23.109775
 20
14.621865
 42
0.018349
  0
VERTEX
  8
2
 10
22.975997
 20
14.607268
 42
-0.106895
  0
VERTEX
  8
2
 10
23.054132
 20
14.664458
  0
VERTEX
  8
2
 10
23.054132
 20
14.664458
 42
0.011057
  0
SEQEND
  0
POLYLINE
  8
2
 66
1
 70
1
  0
VERTEX
  8
2
 10
22.909736
 20
14.498832
 42
-0.131197
  0
VERTEX
  8
2
 10
23.043112
 20
14.555303
 42
0.027943
  0
VERTEX
  8
2
 10
23.052707
 20
14.557612
 42
-0.225096
  0
VERTEX
  8
2
 10
23.091720
 20
14.564799
 42
-0.117497
  0
VERTEX
  8
2
 10
23.058987
 20
14.545442
 42
0.012893
  0
VERTEX
  8
2
 10
23.009920
 20
14.511982
 42
-0.048515
  0
VERTEX
  8
2
 10
22.924193
 20
14.460356
 42
0.563515
  0
VERTEX
  8
2
 10
22.921189
 20
14.466393
 42
-0.029635
  0
VERTEX
  8
2
 10
22.971508
 20
14.505601
 42
0.006435
  0
VERTEX
  8
2
 10
22.993450
 20
14.521807
 42
0.163991
  0
VERTEX
  8
2
 10
23.004470
 20
14.532547
 42
0.070810
  0
VERTEX
  8
2
 10
22.990032
 20
14.525960
 42
0.004144
  0
VERTEX
  8
2
 10
22.967626
 20
14.513534
 42
-0.014703
  0
VERTEX
  8
2
 10
22.920525
 20
14.488206
  0
VERTEX
  8
2
 10
22.920525
 20
14.488206
 42
0.574327
  0
SEQEND
  0
POLYLINE
  8
2
 66
1
 70
1
  0
VERTEX
  8
2
 10
22.840828
 20
14.350464
 42
-0.173386
  0
VERTEX
  8
2
 10
23.172636
 20
14.556367
 42
-0.196612
  0
VERTEX
  8
2
 10
23.195553
 20
14.557499
 42
-0.272255
  0
VERTEX
  8
2
 10
23.176819
 20
14.546207
 42
0.039778
  0
VERTEX
  8
2
 10
23.102782
 20
14.505962
 42
-0.008652
  0
VERTEX
  8
2
 10
23.059506
 20
14.480385
 42
0.224605
  0
VERTEX
  8
2
 10
23.042629
 20
14.467050
 42
0.244578
  0
VERTEX
  8
2
 10
23.062517
 20
14.471110
 42
0.011678
  0
VERTEX
  8
2
 10
23.101158
 20
14.491362
 42
-0.101581
  0
VERTEX
  8
2
 10
23.209960
 20
14.532868
 42
0.000450
  0
VERTEX
  8
2
 10
23.210396
 20
14.532915
 42
-0.773766
  0
VERTEX
  8
2
 10
23.226460
 20
14.524474
 42
-0.120526
  0
VERTEX
  8
2
 10
23.075286
 20
14.458239
 42
0.057296
  0
VERTEX
  8
2
 10
22.964407
 20
14.419803
 42
0.033461
  0
VERTEX
  8
2
 10
22.896118
 20
14.378487
 42
-0.018254
  0
VERTEX
  8
2
 10
22.844669
 20
14.345894
  0
VERTEX
  8
2
 10
22.844669
 20
14.345894
 42
0.605157
  0
SEQEND
  0
POLYLINE
  8
2
 66
1
 70
1
  0
VERTEX
  8
2
 10
22.137347
 20
12.839903
 42
-0.011251
  0
VERTEX
  8
2
 10
22.029808
 20
12.712322
 42
-0.025906
  0
VERTEX
  8
2
 10
21.982110
 20
12.839903
  0
VERTEX
  8
2
 10
21.982110
 20
12.839903
  0
VERTEX
  8
2
 10
22.137347
 20
12.839903
  0
SEQEND
  0
POLYLINE
  8
2
 66
1
 70
1
  0
VERTEX
  8
2
 10
22.066700
 20
12.530337
  0
VERTEX
  8
2
 10
22.064529
 20
12.529973
 42
-0.181977
  0
VERTEX
  8
2
 10
21.962408
 20
12.528857
 42
-0.534298
  0
VERTEX
  8
2
 10
21.975894
 20
12.554613
 42
0.532076
  0
VERTEX
  8
2
 10
21.991269
 20
12.589783
 42
0.217263
  0
VERTEX
  8
2
 10
21.950784
 20
12.621851
 42
-0.658452
  0
VERTEX
  8
2
 10
21.936756
 20
12.644297
 42
-0.392680
  0
VERTEX
  8
2
 10
21.962986
 20
12.652225
 42
-0.056936
  0
VERTEX
  8
2
 10
21.999544
 20
12.634128
 42
0.046905
  0
VERTEX
  8
2
 10
22.029749
 20
12.618643
 42
0.778656
  0
VERTEX
  8
2
 10
22.056449
 20
12.657029
 42
-0.093117
  0
VERTEX
  8
2
 10
22.150827
 20
12.612292
 42
0.003175
  0
VERTEX
  8
2
 10
22.166354
 20
12.602639
 42
0.012111
  0
VERTEX
  8
2
 10
22.121900
 20
12.569870
  0
VERTEX
  8
2
 10
22.121900
 20
12.569870
 42
-0.024864
  0
SEQEND
  0
POLYLINE
  8
2
 66
1
 70
1
  0
VERTEX
  8
2
 10
22.472382
 20
12.831761
 42
-0.022830
  0
VERTEX
  8
2
 10
22.196569
 20
12.617486
 42
-0.019144
  0
VERTEX
  8
2
 10
22.173570
 20
12.632771
 42
0.092161
  0
VERTEX
  8
2
 10
22.109150
 20
12.664526
 42
-0.287809
  0
VERTEX
  8
2
 10
22.106931
 20
12.683540
 42
0.010356
  0
VERTEX
  8
2
 10
22.223108
 20
12.830317
  0
VERTEX
  8
2
 10
22.230496
 20
12.839903
  0
VERTEX
  8
2
 10
22.461044
 20
12.839903
 42
-0.219728
  0
SEQEND
  0
POLYLINE
  8
2
 66
1
 70
1
  0
VERTEX
  8
2
 10
22.527222
 20
12.878383
  0
VERTEX
  8
2
 10
22.262582
 20
12.878383
 42
0.048540
  0
VERTEX
  8
2
 10
22.588088
 20
13.383901
 42
0.072357
  0
VERTEX
  8
2
 10
22.756064
 20
13.816764
 42
-0.011590
  0
VERTEX
  8
2
 10
22.798805
 20
13.736318
 42
0.003097
  0
VERTEX
  8
2
 10
22.815451
 20
13.704447
 42
-0.397694
  0
VERTEX
  8
2
 10
22.819714
 20
13.708217
 42
0.024415
  0
VERTEX
  8
2
 10
22.812447
 20
13.734825
 42
-0.112213
  0
VERTEX
  8
2
 10
22.803333
 20
13.790786
 42
-0.559390
  0
VERTEX
  8
2
 10
22.809218
 20
13.793272
 42
-0.034040
  0
VERTEX
  8
2
 10
22.818820
 20
13.768821
 42
0.003530
  0
VERTEX
  8
2
 10
22.820856
 20
13.762943
 42
-0.269983
  0
VERTEX
  8
2
 10
22.824433
 20
13.764707
 42
-0.071979
  0
VERTEX
  8
2
 10
22.824393
 20
13.879528
 42
0.752275
  0
VERTEX
  8
2
 10
22.830078
 20
13.878633
 42
-0.010908
  0
VERTEX
  8
2
 10
22.832914
 20
13.841144
 42
0.064043
  0
VERTEX
  8
2
 10
22.844679
 20
13.757583
 42
0.065738
  0
VERTEX
  8
2
 10
22.851001
 20
13.741162
 42
-0.916714
  0
VERTEX
  8
2
 10
22.854054
 20
13.741893
 42
0.060023
  0
VERTEX
  8
2
 10
22.854314
 20
13.760768
 42
0.014435
  0
VERTEX
  8
2
 10
22.852039
 20
13.784590
 42
-0.090931
  0
VERTEX
  8
2
 10
22.852532
 20
13.856487
 42
-0.742947
  0
VERTEX
  8
2
 10
22.860656
 20
13.856203
 42
-0.040185
  0
VERTEX
  8
2
 10
22.867104
 20
13.739101
 42
0.014027
  0
VERTEX
  8
2
 10
22.867669
 20
13.711462
 42
-0.340101
  0
VERTEX
  8
2
 10
22.873858
 20
13.711321
 42
0.024006
  0
VERTEX
  8
2
 10
22.881962
 20
13.777564
 42
0.999581
  0
VERTEX
  8
2
 10
22.887336
 20
13.779776
 42
-0.099604
  0
VERTEX
  8
2
 10
22.903473
 20
13.703330
 42
0.062121
  0
VERTEX
  8
2
 10
22.913289
 20
13.640497
 42
0.989190
  0
VERTEX
  8
2
 10
22.919865
 20
13.640885
 42
0.020685
  0
VERTEX
  8
2
 10
22.922346
 20
13.679643
 42
-0.013182
  0
VERTEX
  8
2
 10
22.923932
 20
13.708751
 42
0.848630
  0
VERTEX
  8
2
 10
22.929958
 20
13.710646
 42
-0.029653
  0
VERTEX
  8
2
 10
22.940678
 20
13.653913
 42
0.001345
  0
VERTEX
  8
2
 10
22.942562
 20
13.641410
 42
-0.509988
  0
VERTEX
  8
2
 10
22.950833
 20
13.640800
 42
0.035834
  0
VERTEX
  8
2
 10
22.945175
 20
13.690042
 42
-0.036798
  0
VERTEX
  8
2
 10
22.939399
 20
13.741040
 42
-0.641786
  0
VERTEX
  8
2
 10
22.948376
 20
13.739178
 42
-0.052941
  0
VERTEX
  8
2
 10
22.979449
 20
13.621414
 42
-0.390089
  0
VERTEX
  8
2
 10
22.990135
 20
13.621192
 42
0.036791
  0
VERTEX
  8
2
 10
22.986447
 20
13.644859
 42
-0.041571
  0
VERTEX
  8
2
 10
22.981900
 20
13.676035
 42
-0.885186
  0
VERTEX
  8
2
 10
22.987294
 20
13.678725
 42
-0.060330
  0
VERTEX
  8
2
 10
23.010568
 20
13.596926
 42
0.008000
  0
VERTEX
  8
2
 10
23.017332
 20
13.565097
 42
-0.686648
  0
VERTEX
  8
2
 10
23.022978
 20
13.567624
 42
0.048808
  0
VERTEX
  8
2
 10
23.009825
 20
13.652265
 42
-0.023302
  0
VERTEX
  8
2
 10
22.997883
 20
13.716543
 42
0.582328
  0
VERTEX
  8
2
 10
23.002636
 20
13.717450
 42
-0.016281
  0
VERTEX
  8
2
 10
23.012671
 20
13.684907
 42
0.143403
  0
VERTEX
  8
2
 10
23.059406
 20
13.597064
 42
-0.815664
  0
VERTEX
  8
2
 10
23.063569
 20
13.601599
 42
-0.069492
  0
VERTEX
  8
2
 10
23.020558
 20
13.704763
 42
0.007760
  0
VERTEX
  8
2
 10
23.008350
 20
13.742265
 42
-0.064443
  0
VERTEX
  8
2
 10
22.891604
 20
13.970978
 42
-0.231900
  0
VERTEX
  8
2
 10
22.886358
 20
14.006561
 42
-0.410935
  0
VERTEX
  8
2
 10
22.907594
 20
13.980310
 42
-0.084503
  0
VERTEX
  8
2
 10
22.937697
 20
13.904006
 42
0.028428
  0
VERTEX
  8
2
 10
22.952229
 20
13.857496
 42
-0.489045
  0
VERTEX
  8
2
 10
22.964876
 20
13.860317
 42
0.006164
  0
VERTEX
  8
2
 10
22.960568
 20
13.878732
 42
-0.065213
  0
VERTEX
  8
2
 10
22.951389
 20
13.939965
 42
-0.663074
  0
VERTEX
  8
2
 10
22.959082
 20
13.941928
 42
-0.098426
  0
VERTEX
  8
2
 10
22.986360
 20
13.857919
 42
0.035567
  0
VERTEX
  8
2
 10
22.998511
 20
13.806769
 42
-0.628560
  0
VERTEX
  8
2
 10
23.008921
 20
13.806733
 42
0.006934
  0
VERTEX
  8
2
 10
23.004437
 20
13.828868
 42
-0.063129
  0
VERTEX
  8
2
 10
22.993754
 20
13.914900
 42
-0.650764
  0
VERTEX
  8
2
 10
23.005192
 20
13.916910
 42
-0.077719
  0
VERTEX
  8
2
 10
23.039700
 20
13.818166
 42
0.034796
  0
VERTEX
  8
2
 10
23.057558
 20
13.755646
 42
0.750837
  0
VERTEX
  8
2
 10
23.065904
 20
13.755764
 42
0.102422
  0
VERTEX
  8
2
 10
23.060795
 20
13.789625
 42
-0.090276
  0
VERTEX
  8
2
 10
23.055479
 20
13.821275
 42
-0.560897
  0
VERTEX
  8
2
 10
23.066008
 20
13.824721
 42
-0.112169
  0
VERTEX
  8
2
 10
23.094080
 20
13.714129
 42
0.013845
  0
VERTEX
  8
2
 10
23.098396
 20
13.678918
 42
-0.714813
  0
VERTEX
  8
2
 10
23.104589
 20
13.677469
 42
0.029043
  0
VERTEX
  8
2
 10
23.107631
 20
13.747697
 42
-0.000532
  0
VERTEX
  8
2
 10
23.107686
 20
13.757461
 42
0.349825
  0
VERTEX
  8
2
 10
23.113543
 20
13.758410
 42
-0.008968
  0
VERTEX
  8
2
 10
23.135226
 20
13.647964
 42
-0.720692
  0
VERTEX
  8
2
 10
23.141801
 20
13.646133
 42
0.048224
  0
VERTEX
  8
2
 10
23.140822
 20
13.689164
 42
-0.058560
  0
VERTEX
  8
2
 10
23.140378
 20
13.736308
 42
-0.994462
  0
VERTEX
  8
2
 10
23.149399
 20
13.735732
 42
-0.013404
  0
VERTEX
  8
2
 10
23.168671
 20
13.668024
 42
0.001072
  0
VERTEX
  8
2
 10
23.173735
 20
13.649187
 42
-0.736322
  0
VERTEX
  8
2
 10
23.180653
 20
13.652211
 42
0.021745
  0
VERTEX
  8
2
 10
23.179667
 20
13.677163
 42
-0.050441
  0
VERTEX
  8
2
 10
23.179597
 20
13.715057
 42
0.887448
  0
VERTEX
  8
2
 10
23.188092
 20
13.716775
 42
0.004570
  0
VERTEX
  8
2
 10
23.193805
 20
13.696076
 42
-0.040403
  0
VERTEX
  8
2
 10
23.207251
 20
13.640618
 42
-0.077867
  0
VERTEX
  8
2
 10
22.944409
 20
13.277897
  0
VERTEX
  8
2
 10
22.944409
 20
13.277897
 42
-0.028438
  0
SEQEND
  0
ENDSEC
   0
EOF
